  0
SECTION
  2
HEADER
  9
$ACADVER
  1
AC1009
  9
$INSBASE
 10
0.0
 20
0.0
 30
0.0
  9
$EXTMIN
 10
-180.01098548994739
 20
-271.71201227911092
 30
-0.0015258207003583
  9
$EXTMAX
 10
180.01098716632811
 20
263.54811651401701
 30
0.0000000349246037
  9
$LIMMIN
 10
0.0
 20
0.0
  9
$LIMMAX
 10
0.0
 20
0.0
  9
$ORTHOMODE
 70
     0
  9
$REGENMODE
 70
     1
  9
$FILLMODE
 70
     1
  9
$QTEXTMODE
 70
     0
  9
$MIRRTEXT
 70
     1
  9
$DRAGMODE
 70
     2
  9
$LTSCALE
 40
10.16
  9
$OSMODE
 70
   231
  9
$ATTMODE
 70
     1
  9
$TEXTSIZE
 40
0.0
  9
$TRACEWID
 40
1.0
  9
$TEXTSTYLE
  7
STANDARD
  9
$CLAYER
  8
DATA
  9
$CELTYPE
  6
BYLAYER
  9
$CECOLOR
 62
   256
  9
$DIMSCALE
 40
1.0
  9
$DIMASZ
 40
0.18
  9
$DIMEXO
 40
0.0625
  9
$DIMDLI
 40
0.38
  9
$DIMRND
 40
0.0
  9
$DIMDLE
 40
0.0
  9
$DIMEXE
 40
0.18
  9
$DIMTP
 40
0.0
  9
$DIMTM
 40
0.0
  9
$DIMTXT
 40
0.18
  9
$DIMCEN
 40
0.09
  9
$DIMTSZ
 40
0.0
  9
$DIMTOL
 70
     0
  9
$DIMLIM
 70
     0
  9
$DIMTIH
 70
     1
  9
$DIMTOH
 70
     1
  9
$DIMSE1
 70
     0
  9
$DIMSE2
 70
     0
  9
$DIMTAD
 70
     0
  9
$DIMZIN
 70
     0
  9
$DIMBLK
  1

  9
$DIMASO
 70
     1
  9
$DIMSHO
 70
     1
  9
$DIMPOST
  1

  9
$DIMAPOST
  1

  9
$DIMALT
 70
     0
  9
$DIMALTD
 70
     2
  9
$DIMALTF
 40
25.399999999999999
  9
$DIMLFAC
 40
1.0
  9
$DIMTOFL
 70
     0
  9
$DIMTVP
 40
0.0
  9
$DIMTIX
 70
     0
  9
$DIMSOXD
 70
     0
  9
$DIMSAH
 70
     0
  9
$DIMBLK1
  1

  9
$DIMBLK2
  1

  9
$DIMSTYLE
  2
STANDARD
  9
$DIMCLRD
 70
     0
  9
$DIMCLRE
 70
     0
  9
$DIMCLRT
 70
     0
  9
$DIMTFAC
 40
1.0
  9
$DIMGAP
 40
0.09
  9
$LUNITS
 70
     2
  9
$LUPREC
 70
     4
  9
$SKETCHINC
 40
0.1
  9
$FILLETRAD
 40
0.0
  9
$AUNITS
 70
     0
  9
$AUPREC
 70
     0
  9
$MENU
  1
acad
  9
$ELEVATION
 40
0.0
  9
$PELEVATION
 40
0.0
  9
$THICKNESS
 40
0.0
  9
$LIMCHECK
 70
     0
  9
$BLIPMODE
 70
     0
  9
$CHAMFERA
 40
0.0
  9
$CHAMFERB
 40
0.0
  9
$SKPOLY
 70
     0
  9
$TDCREATE
 40
2456478.695335648
  9
$TDUPDATE
 40
2456478.6970131141
  9
$TDINDWG
 40
0.000365162
  9
$TDUSRTIMER
 40
0.0003651157
  9
$USRTIMER
 70
     1
  9
$ANGBASE
 50
0.0
  9
$ANGDIR
 70
     0
  9
$PDMODE
 70
     1
  9
$PDSIZE
 40
-2.0
  9
$PLINEWID
 40
0.0
  9
$COORDS
 70
     2
  9
$SPLFRAME
 70
     0
  9
$SPLINETYPE
 70
     6
  9
$SPLINESEGS
 70
     8
  9
$ATTDIA
 70
     0
  9
$ATTREQ
 70
     1
  9
$HANDLING
 70
     1
  9
$HANDSEED
  5
3EE
  9
$SURFTAB1
 70
     6
  9
$SURFTAB2
 70
     6
  9
$SURFTYPE
 70
     6
  9
$SURFU
 70
     6
  9
$SURFV
 70
     6
  9
$UCSNAME
  2

  9
$UCSORG
 10
0.0
 20
0.0
 30
0.0
  9
$UCSXDIR
 10
1.0
 20
0.0
 30
0.0
  9
$UCSYDIR
 10
0.0
 20
1.0
 30
0.0
  9
$PUCSNAME
  2

  9
$PUCSORG
 10
0.0
 20
0.0
 30
0.0
  9
$PUCSXDIR
 10
1.0
 20
0.0
 30
0.0
  9
$PUCSYDIR
 10
0.0
 20
1.0
 30
0.0
  9
$USERI1
 70
     0
  9
$USERI2
 70
     0
  9
$USERI3
 70
     0
  9
$USERI4
 70
     0
  9
$USERI5
 70
     0
  9
$USERR1
 40
0.0
  9
$USERR2
 40
0.0
  9
$USERR3
 40
0.0
  9
$USERR4
 40
0.0
  9
$USERR5
 40
0.0
  9
$WORLDVIEW
 70
     1
  9
$SHADEDGE
 70
     3
  9
$SHADEDIF
 70
    70
  9
$TILEMODE
 70
     1
  9
$MAXACTVP
 70
    64
  9
$PLIMCHECK
 70
     0
  9
$PEXTMIN
 10
1.0000000000000000E+020
 20
1.0000000000000000E+020
 30
1.0000000000000000E+020
  9
$PEXTMAX
 10
-1.0000000000000000E+020
 20
-1.0000000000000000E+020
 30
-1.0000000000000000E+020
  9
$PLIMMIN
 10
0.0
 20
0.0
  9
$PLIMMAX
 10
12.0
 20
9.0
  9
$UNITMODE
 70
     0
  9
$VISRETAIN
 70
     0
  9
$PLINEGEN
 70
     1
  9
$PSLTSCALE
 70
     0
  0
ENDSEC
  0
SECTION
  2
TABLES
  0
TABLE
  2
VPORT
 70
     1
  0
VPORT
  2
*ACTIVE
 70
     0
 10
0.0
 20
0.0
 11
1.0
 21
1.0
 12
0.000000838190374
 22
-4.0819478825469551
 13
0.0
 23
0.0
 14
1.0
 24
1.0
 15
0.0
 25
0.0
 16
0.0
 26
0.0
 36
1.0
 17
0.0
 27
0.0
 37
0.0
 40
539.39341164095117
 41
2.1585051546391751
 42
50.0
 43
0.0
 44
0.0
 50
0.0
 51
0.0
 71
     0
 72
  2000
 73
     1
 74
     1
 75
     0
 76
     0
 77
     0
 78
     0
  0
ENDTAB
  0
TABLE
  2
LTYPE
 70
    11
  0
LTYPE
  2
CONTINUOUS
 70
     0
  3
Solid line
 72
    65
 73
     0
 40
0.0
  0
ENDTAB
  0
TABLE
  2
LAYER
 70
     5
  0
LAYER
  2
0
 70
     0
 62
     7
  6
CONTINUOUS
  0
LAYER
  2
DATA
 70
     0
 62
     7
  6
CONTINUOUS
  0
LAYER
  2
HIBINO-BASE
 70
     0
 62
     7
  6
CONTINUOUS
  0
LAYER
  2
SPEC
 70
     0
 62
     7
  6
CONTINUOUS
  0
LAYER
  2
DIMNSIONS
 70
     0
 62
     7
  6
CONTINUOUS
  0
ENDTAB
  0
TABLE
  2
STYLE
 70
     3
  0
STYLE
  2
STANDARD
 70
     0
 40
0.0
 41
1.0
 50
0.0
 71
     0
 42
0.0
  3
txt
  4
BIGFONT.SHX
  0
ENDTAB
  0
TABLE
  2
VIEW
 70
     0
  0
ENDTAB
  0
TABLE
  2
UCS
 70
     0
  0
ENDTAB
  0
TABLE
  2
APPID
 70
     4
  0
APPID
  2
ACAD
 70
     0
  0
APPID
  2
ACADANNOTATIVE
 70
     0
  0
APPID
  2
ACAD_NAV_VCDISPLAY
 70
     0
  0
APPID
  2
ACAD_MLEADERVER
 70
     0
  0
ENDTAB
  0
TABLE
  2
DIMSTYLE
 70
     2
  0
DIMSTYLE
  2
STANDARD
 70
     0
  3

  4

  5

  6

  7

 40
1.0
 41
0.18
 42
0.0625
 43
0.38
 44
0.18
 45
0.0
 46
0.0
 47
0.0
 48
0.0
140
0.18
141
0.09
142
0.0
143
25.399999999999999
144
1.0
145
0.0
146
1.0
147
0.09
 71
     0
 72
     0
 73
     1
 74
     1
 75
     0
 76
     0
 77
     0
 78
     0
170
     0
171
     2
172
     0
173
     0
174
     0
175
     0
176
     0
177
     0
178
     0
  0
ENDTAB
  0
ENDSEC
  0
SECTION
  2
BLOCKS
  0
BLOCK
  8
0
  2
$MODEL_SPACE
 70
     0
 10
0.0
 20
0.0
 30
0.0
  3
$MODEL_SPACE
  1

  0
ENDBLK
  5
32E
  8
0
  0
BLOCK
 67
     1
  8
0
  2
$PAPER_SPACE
 70
     0
 10
0.0
 20
0.0
 30
0.0
  3
$PAPER_SPACE
  1

  0
ENDBLK
  5
32A
 67
     1
  8
0
  0
ENDSEC
  0
SECTION
  2
ENTITIES
  0
LINE
  5
2C
  8
HIBINO-BASE
  6
CONTINUOUS
 62
     7
 10
-180.0
 20
263.53181500000011
 30
0.0
 11
180.0
 21
263.53181500000011
 31
0.0
  0
LINE
  5
2D
  8
HIBINO-BASE
  6
CONTINUOUS
 62
     7
 10
180.0
 20
-256.46818500000001
 30
0.0
 11
-180.0
 21
-256.46818500000001
 31
0.0
  0
LINE
  5
2E
  8
HIBINO-BASE
  6
CONTINUOUS
 62
     7
 10
-180.0
 20
-256.46818500000001
 30
0.0
 11
-180.0
 21
263.53181500000011
 31
0.0
  0
LINE
  5
2F
  8
HIBINO-BASE
  6
CONTINUOUS
 62
     7
 10
180.0
 20
263.53181500000011
 30
0.0
 11
180.0
 21
-256.46818500000001
 31
0.0
  0
LINE
  5
30
  8
HIBINO-BASE
  6
CONTINUOUS
 62
     7
 10
0.0000000000000142
 20
-211.46818500000001
 30
0.0
 11
180.0
 21
-211.46818500000001
 31
0.0
  0
LINE
  5
31
  8
HIBINO-BASE
  6
CONTINUOUS
 62
     7
 10
0.0000000000000142
 20
-256.46818500000001
 30
0.0
 11
0.0000000000000142
 21
-211.46818500000001
 31
0.0
  0
TEXT
  5
32
  8
HIBINO-BASE
 62
     7
 10
1.8000000000000249
 20
-216.48557166666669
 30
0.0
 40
3.2576822916666659
  1
NOTE
 41
0.7
 11
1.8000000000000249
 21
-213.22788937499999
 31
0.0
 73
     3
  0
LINE
  5
33
  8
HIBINO-BASE
  6
CONTINUOUS
 62
     7
 10
70.000000000000043
 20
-256.46818500000001
 30
0.0
 11
70.000000000000043
 21
-211.46818500000001
 31
0.0
  0
TEXT
  5
34
  8
HIBINO-BASE
 62
     7
 10
71.799999999999983
 20
-216.48557166666669
 30
0.0
 40
3.2576822916666659
  1
TITLE
 41
0.7
 11
71.799999999999983
 21
-213.22788937499999
 31
0.0
 73
     3
  0
LINE
  5
35
  8
HIBINO-BASE
  6
CONTINUOUS
 62
     7
 10
0.0000000000000142
 20
-236.46818500000001
 30
0.0
 11
180.0
 21
-236.46818500000001
 31
0.0
  0
TEXT
  5
36
  8
HIBINO-BASE
 62
     7
 10
96.799999999999983
 20
-241.37293166666669
 30
0.0
 40
3.2576822916666659
  1
DRAWN
 41
0.7
 11
96.799999999999983
 21
-238.11524937499999
 31
0.0
 73
     3
  0
TEXT
  5
37
  8
HIBINO-BASE
 62
     7
 10
46.79999999999999
 20
-241.37293166666669
 30
0.0
 40
3.2576822916666659
  1
DATE
 41
0.7
 11
46.79999999999999
 21
-238.11524937499999
 31
0.0
 73
     3
  0
TEXT
  5
38
  8
HIBINO-BASE
 62
     7
 10
26.800000000000001
 20
-241.37293166666669
 30
0.0
 40
3.2576822916666659
  1
SCALE
 41
0.7
 11
26.800000000000001
 21
-238.11524937499999
 31
0.0
 73
     3
  0
TEXT
  5
39
  8
HIBINO-BASE
 62
     7
 10
71.799999999999983
 20
-241.37293166666669
 30
0.0
 40
3.2576822916666659
  1
DESIGN
 41
0.7
 11
71.799999999999983
 21
-238.11524937499999
 31
0.0
 73
     3
  0
TEXT
  5
3A
  8
HIBINO-BASE
 62
     7
 10
146.7999999999999
 20
-241.37293166666669
 30
0.0
 40
3.2576822916666659
  1
DRAWING NO.
 41
0.7
 11
146.7999999999999
 21
-238.11524937499999
 31
0.0
 73
     3
  0
TEXT
  5
3B
  8
HIBINO-BASE
 62
     7
 10
121.7999999999999
 20
-241.37293166666669
 30
0.0
 40
3.2576822916666659
  1
CHECK
 41
0.7
 11
121.7999999999999
 21
-238.11524937499999
 31
0.0
 73
     3
  0
LINE
  5
3C
  8
HIBINO-BASE
  6
CONTINUOUS
 62
     7
 10
28.750000000000011
 20
-253.96818500000001
 30
0.0
 11
36.250000000000028
 21
-246.46818500000001
 31
0.0
  0
TEXT
  5
3D
  8
HIBINO-BASE
 62
     7
 10
27.500000000000011
 20
-248.68607166666661
 30
0.0
 40
3.2576822916666659
  1
1
 41
0.7
 11
27.500000000000011
 21
-245.42838937499999
 31
0.0
 73
     3
  0
LINE
  5
3E
  8
HIBINO-BASE
  6
CONTINUOUS
 62
     7
 10
25.000000000000011
 20
-256.46818500000001
 30
0.0
 11
25.000000000000011
 21
-236.46818500000001
 31
0.0
  0
LINE
  5
3F
  8
HIBINO-BASE
  6
CONTINUOUS
 62
     7
 10
44.999999999999993
 20
-256.46818500000001
 30
0.0
 11
44.999999999999993
 21
-236.46818500000001
 31
0.0
  0
LINE
  5
40
  8
HIBINO-BASE
  6
CONTINUOUS
 62
     7
 10
94.999999999999957
 20
-236.46818500000001
 30
0.0
 11
94.999999999999957
 21
-256.46818500000001
 31
0.0
  0
LINE
  5
41
  8
HIBINO-BASE
  6
CONTINUOUS
 62
     7
 10
145.0
 20
-236.46818500000001
 30
0.0
 11
145.0
 21
-256.46818500000001
 31
0.0
  0
LINE
  5
42
  8
HIBINO-BASE
  6
CONTINUOUS
 62
     7
 10
119.9999999999999
 20
-256.46818500000001
 30
0.0
 11
119.9999999999999
 21
-236.46818500000001
 31
0.0
  0
TEXT
  5
43
  8
HIBINO-BASE
 62
     7
 10
46.713080000000019
 20
-250.7408916666667
 30
0.0
 40
3.2576822916666659
  1
'13.07.
 41
0.7
 11
46.713080000000019
 21
-247.483209375
 31
0.0
 73
     3
  0
TEXT
  5
44
  8
HIBINO-BASE
 62
     7
 10
35.000000000000007
 20
-252.43607166666669
 30
0.0
 40
3.2576822916666659
  1
2
 41
0.7
 11
35.000000000000007
 21
-249.17838937499999
 31
0.0
 73
     3
  0
TEXT
  5
45
  8
HIBINO-BASE
 62
     7
 10
98.011620022069224
 20
-250.7408916666667
 30
0.0
 40
3.2576822916666659
  1
Ootake
 41
0.7
 11
98.011620022069224
 21
-247.483209375
 31
0.0
 73
     3
  0
TEXT
  5
46
  8
HIBINO-BASE
 62
     7
 10
7.7666666666667208
 20
-252.51618500000001
 30
0.0
 40
6.5153645833333318
  1
A4
 41
0.7
 11
7.7666666666667208
 21
-246.00082041666661
 31
0.0
 73
     3
  0
TEXT
  5
47
  8
HIBINO-BASE
 62
     7
 10
1.916666666666671
 20
-241.7070949999999
 30
0.0
 40
3.2576822916666659
  1
PAPER SIZE
 41
0.7
 11
1.916666666666671
 21
-238.44941270833331
 31
0.0
 73
     3
  0
TEXT
  5
48
  8
HIBINO-BASE
 62
     7
 10
-165.63199999999989
 20
-269.28554059999988
 30
0.0
 40
7.2000883593749991
  1
Hibino Corporation
 41
0.7
 11
-165.63199999999989
 21
-262.08545224062487
 31
0.0
 73
     3
  0
TEXT
  5
49
  8
HIBINO-BASE
 62
     7
 10
100.13678
 20
-269.28554059999988
 30
0.0
 40
7.2000883593749991
  1
ヒビノ株式会社
 41
0.7
 11
100.13678
 21
-262.08545224062487
 31
0.0
 73
     3
  0
LINE
  5
4A
  8
SPEC
  6
CONTINUOUS
 62
     7
 10
-164.99999999999989
 20
243.53181499999999
 30
0.0
 11
130.0
 21
243.53181499999999
 31
0.0
  0
LINE
  5
4B
  8
SPEC
  6
CONTINUOUS
 62
     7
 10
-164.99999999999989
 20
228.53181499999999
 30
0.0
 11
130.0
 21
228.53181499999999
 31
0.0
  0
LINE
  5
4C
  8
SPEC
  6
CONTINUOUS
 62
     7
 10
-164.99999999999989
 20
236.03181499999999
 30
0.0
 11
130.0
 21
236.03181499999999
 31
0.0
  0
LINE
  5
4D
  8
SPEC
  6
CONTINUOUS
 62
     7
 10
-164.99999999999989
 20
243.53181499999999
 30
0.0
 11
-164.99999999999989
 21
228.53181500000011
 31
0.0
  0
TEXT
  5
4E
  8
SPEC
 62
     7
 10
-162.49999999999989
 20
246.318355
 30
0.0
 40
4.8865234375000002
  1
仕様
 41
0.7
 11
-162.49999999999989
 21
251.20487843750001
 31
0.0
 73
     3
  0
LINE
  5
4F
  8
SPEC
  6
CONTINUOUS
 62
     7
 10
-99.999999999999957
 20
243.53181499999999
 30
0.0
 11
-99.999999999999957
 21
228.53181500000011
 31
0.0
  0
LINE
  5
50
  8
SPEC
  6
CONTINUOUS
 62
     7
 10
130.0
 20
243.53181499999999
 30
0.0
 11
130.0
 21
228.53181500000011
 31
0.0
  0
TEXT
  5
51
  8
SPEC
 62
     7
 10
-163.4036558581015
 20
237.81130641365709
 30
0.0
 40
3.8006293402777769
  1
寸法(W\U+00D7H\U+00D7D)
 41
0.7
 11
-163.4036558581015
 21
241.6119357539348
 31
0.0
 73
     3
  0
TEXT
  5
52
  8
SPEC
 62
     7
 10
-163.4036558581015
 20
230.41313434270799
 30
0.0
 40
3.8006293402777769
  1
質量
 41
0.7
 11
-163.4036558581015
 21
234.2137636829857
 31
0.0
 73
     3
  0
TEXT
  5
53
  8
SPEC
 62
     7
 10
-98.19999999999996
 20
237.79337600289219
 30
0.0
 40
3.8006293402777769
  1
91.0\U+00D741.0\U+00D7142mm(除突起部)
 41
0.7
 11
-98.19999999999996
 21
241.59400534317001
 31
0.0
 73
     3
  0
TEXT
  5
54
  8
SPEC
 62
     7
 10
-98.132177707571202
 20
230.43077720489009
 30
0.0
 40
3.8006293402777769
  1
720g
 41
0.7
 11
-98.132177707571202
 21
234.23140654516791
 31
0.0
 73
     3
  0
TEXT
  5
55
  8
DIMNSIONS
 62
     7
 10
-40.0
 20
-231.929205
 30
0.0
 40
4.8865234375000002
  1
(単位：mm)
 41
0.7
 11
-40.0
 21
-227.04268156250001
 31
0.0
 73
     3
  0
LINE
  5
56
  8
DIMNSIONS
  6
CONTINUOUS
 62
     7
 10
-98.218116254675408
 20
-29.999999999999989
 30
0.0
 11
-154.0
 21
-29.999999999999989
 31
0.0
  0
LINE
  5
57
  8
DIMNSIONS
  6
CONTINUOUS
 62
     7
 10
-87.172965227383315
 20
111.9889987213172
 30
0.0
 11
-154.0
 21
111.9889987213172
 31
0.0
  0
LINE
  5
58
  8
DIMNSIONS
  6
CONTINUOUS
 62
     7
 10
-150.0
 20
-29.999999999999989
 30
0.0
 11
-150.0
 21
111.9889987213172
 31
0.0
  0
LINE
  5
59
  8
DIMNSIONS
  6
CONTINUOUS
 62
     7
 10
-150.0
 20
-29.999999999999989
 30
0.0
 11
-151.34007959030041
 21
-24.998754882812491
 31
0.0
  0
LINE
  5
5A
  8
DIMNSIONS
  6
CONTINUOUS
 62
     7
 10
-150.0
 20
-29.999999999999989
 30
0.0
 11
-148.65992040969951
 21
-24.998754882812491
 31
0.0
  0
LINE
  5
5B
  8
DIMNSIONS
  6
CONTINUOUS
 62
     7
 10
-150.0
 20
111.9889987213172
 30
0.0
 11
-148.65992040969951
 21
106.98775360412969
 31
0.0
  0
LINE
  5
5C
  8
DIMNSIONS
  6
CONTINUOUS
 62
     7
 10
-150.0
 20
111.9889987213172
 30
0.0
 11
-151.34007959030041
 21
106.98775360412969
 31
0.0
  0
TEXT
  5
5D
  8
DIMNSIONS
 62
     7
 10
-151.98777777777769
 20
35.702832693991994
 30
0.0
 40
5.4294704861111107
  1
142
 50
90.0
 41
0.7
 11
-157.41724826388881
 21
35.702832693991994
 31
0.0
 73
     3
  0
LINE
  5
5E
  8
DIMNSIONS
  6
CONTINUOUS
 62
     7
 10
-125.4975477328327
 20
-17.124131115666039
 30
0.0
 11
-125.4975477328327
 21
-54.0
 31
0.0
  0
LINE
  5
5F
  8
DIMNSIONS
  6
CONTINUOUS
 62
     7
 10
-34.5024522671673
 20
-17.124131115666039
 30
0.0
 11
-34.5024522671673
 21
-54.0
 31
0.0
  0
LINE
  5
60
  8
DIMNSIONS
  6
CONTINUOUS
 62
     7
 10
-125.4975477328327
 20
-50.0
 30
0.0
 11
-34.5024522671673
 21
-50.0
 31
0.0
  0
LINE
  5
61
  8
DIMNSIONS
  6
CONTINUOUS
 62
     7
 10
-125.4975477328327
 20
-50.0
 30
0.0
 11
-120.49630261564521
 21
-48.659920409699531
 31
0.0
  0
LINE
  5
62
  8
DIMNSIONS
  6
CONTINUOUS
 62
     7
 10
-125.4975477328327
 20
-50.0
 30
0.0
 11
-120.49630261564521
 21
-51.340079590300469
 31
0.0
  0
LINE
  5
63
  8
DIMNSIONS
  6
CONTINUOUS
 62
     7
 10
-34.5024522671673
 20
-50.0
 30
0.0
 11
-39.503697384354801
 21
-51.340079590300491
 31
0.0
  0
LINE
  5
64
  8
DIMNSIONS
  6
CONTINUOUS
 62
     7
 10
-34.5024522671673
 20
-50.0
 30
0.0
 11
-39.503697384354801
 21
-48.659920409699531
 31
0.0
  0
TEXT
  5
65
  8
DIMNSIONS
 62
     7
 10
-87.055555555555543
 20
-48.012222222222221
 30
0.0
 40
5.4294704861111107
  1
91.0
 41
0.7
 11
-87.055555555555543
 21
-42.582751736111113
 31
0.0
 73
     3
  0
LINE
  5
66
  8
DIMNSIONS
  6
CONTINUOUS
 62
     7
 10
-122.0
 20
105.0
 30
0.0
 11
-122.0
 21
134.0
 31
0.0
  0
LINE
  5
67
  8
DIMNSIONS
  6
CONTINUOUS
 62
     7
 10
-37.999999999999993
 20
105.0
 30
0.0
 11
-37.999999999999993
 21
134.0
 31
0.0
  0
LINE
  5
68
  8
DIMNSIONS
  6
CONTINUOUS
 62
     7
 10
-122.0
 20
130.0
 30
0.0
 11
-37.999999999999993
 21
130.0
 31
0.0
  0
LINE
  5
69
  8
DIMNSIONS
  6
CONTINUOUS
 62
     7
 10
-122.0
 20
130.0
 30
0.0
 11
-116.99875488281251
 21
131.34007959030049
 31
0.0
  0
LINE
  5
6A
  8
DIMNSIONS
  6
CONTINUOUS
 62
     7
 10
-122.0
 20
130.0
 30
0.0
 11
-116.99875488281251
 21
128.65992040969951
 31
0.0
  0
LINE
  5
6B
  8
DIMNSIONS
  6
CONTINUOUS
 62
     7
 10
-37.999999999999993
 20
130.0
 30
0.0
 11
-43.00124511718748
 21
128.65992040969951
 31
0.0
  0
LINE
  5
6C
  8
DIMNSIONS
  6
CONTINUOUS
 62
     7
 10
-37.999999999999993
 20
130.0
 30
0.0
 11
-43.00124511718748
 21
131.34007959030049
 31
0.0
  0
TEXT
  5
6D
  8
DIMNSIONS
 62
     7
 10
-87.055555555555543
 20
131.98777777777769
 30
0.0
 40
5.4294704861111107
  1
84.0
 41
0.7
 11
-87.055555555555543
 21
137.41724826388881
 31
0.0
 73
     3
  0
LINE
  5
6E
  8
DIMNSIONS
  6
CONTINUOUS
 62
     7
 10
-129.49754773283269
 20
-119.99999999996631
 30
0.0
 11
-154.0
 21
-119.99999999996631
 31
0.0
  0
LINE
  5
6F
  8
DIMNSIONS
  6
CONTINUOUS
 62
     7
 10
-100.5
 20
-79.0
 30
0.0
 11
-154.0
 21
-79.0
 31
0.0
  0
LINE
  5
70
  8
DIMNSIONS
  6
CONTINUOUS
 62
     7
 10
-150.0
 20
-119.99999999996631
 30
0.0
 11
-150.0
 21
-79.0
 31
0.0
  0
LINE
  5
71
  8
DIMNSIONS
  6
CONTINUOUS
 62
     7
 10
-150.0
 20
-119.99999999996631
 30
0.0
 11
-151.34007959030041
 21
-114.9987548827788
 31
0.0
  0
LINE
  5
72
  8
DIMNSIONS
  6
CONTINUOUS
 62
     7
 10
-150.0
 20
-119.99999999996631
 30
0.0
 11
-148.65992040969951
 21
-114.9987548827788
 31
0.0
  0
LINE
  5
73
  8
DIMNSIONS
  6
CONTINUOUS
 62
     7
 10
-150.0
 20
-79.0
 30
0.0
 11
-148.65992040969951
 21
-84.001245117187494
 31
0.0
  0
LINE
  5
74
  8
DIMNSIONS
  6
CONTINUOUS
 62
     7
 10
-150.0
 20
-79.0
 30
0.0
 11
-151.34007959030041
 21
-84.001245117187494
 31
0.0
  0
TEXT
  5
75
  8
DIMNSIONS
 62
     7
 10
-151.98777779249679
 20
-106.5555555555387
 30
0.0
 40
5.4294705670165291
  1
41.0
 50
90.0
 41
0.7
 11
-157.41724835951331
 21
-106.5555555555387
 31
0.0
 73
     3
  0
LINE
  5
76
  8
DIMNSIONS
  6
CONTINUOUS
 62
     7
 10
-117.5
 20
-120.99999999996631
 30
0.0
 11
-154.0
 21
-120.99999999996631
 31
0.0
  0
LINE
  5
77
  8
DIMNSIONS
  6
CONTINUOUS
 62
     7
 10
-129.49754773283269
 20
-119.99999999996631
 30
0.0
 11
-154.0
 21
-119.99999999996631
 31
0.0
  0
LINE
  5
78
  8
DIMNSIONS
  6
CONTINUOUS
 62
     7
 10
-150.0
 20
-119.99999999996631
 30
0.0
 11
-150.0
 21
-120.99999999996631
 31
0.0
  0
LINE
  5
79
  8
DIMNSIONS
  6
CONTINUOUS
 62
     7
 10
-150.0
 20
-120.99999999996631
 30
0.0
 11
-150.0
 21
-133.5849609375
 31
0.0
  0
LINE
  5
7A
  8
DIMNSIONS
  6
CONTINUOUS
 62
     7
 10
-150.0
 20
-120.99999999996631
 30
0.0
 11
-148.65992040969951
 21
-126.0012451171538
 31
0.0
  0
LINE
  5
7B
  8
DIMNSIONS
  6
CONTINUOUS
 62
     7
 10
-150.0
 20
-120.99999999996631
 30
0.0
 11
-151.34007959030041
 21
-126.0012451171538
 31
0.0
  0
LINE
  5
7C
  8
DIMNSIONS
  6
CONTINUOUS
 62
     7
 10
-150.0
 20
-119.99999999996631
 30
0.0
 11
-150.0
 21
-109.99999999996631
 31
0.0
  0
LINE
  5
7D
  8
DIMNSIONS
  6
CONTINUOUS
 62
     7
 10
-150.0
 20
-119.99999999996631
 30
0.0
 11
-151.34007959030041
 21
-114.9987548827788
 31
0.0
  0
LINE
  5
7E
  8
DIMNSIONS
  6
CONTINUOUS
 62
     7
 10
-150.0
 20
-119.99999999996631
 30
0.0
 11
-148.65992040969951
 21
-114.9987548827788
 31
0.0
  0
TEXT
  5
7F
  8
DIMNSIONS
 62
     7
 10
-151.98777779249679
 20
-133.5849609375
 30
0.0
 40
5.4294705670165291
  1
1.0
 50
90.0
 41
0.7
 11
-157.41724835951331
 21
-133.5849609375
 31
0.0
 73
     3
  0
TEXT
  5
80
  8
DATA
 62
     7
 10
99.882540380674456
 20
-234.32386461932549
 30
0.0
 40
4.8865234375000002
  1
STS DAM+
 41
0.7
 11
99.882540380674456
 21
-229.4373411818255
 31
0.0
 73
     3
  0
TEXT
  5
81
  8
DATA
 62
     7
 10
99.999999999999957
 20
-219.70640499999999
 30
0.0
 40
4.8865234375000002
  1
AKG
 41
0.7
 11
99.999999999999957
 21
-214.8198815625
 31
0.0
 73
     3
  0
TEXT
  5
82
  8
DATA
 62
     7
 10
97.877760673475436
 20
-226.5428577806745
 30
0.0
 40
3.257687421875
  1
デスクスタンド
 41
0.7
 11
97.877760673475436
 21
-223.28517035879949
 31
0.0
 73
     3
  0
TEXT
  5
83
  8
DATA
 62
     7
 10
-175.0
 20
-240.7156294444444
 30
0.0
 40
3.8006293402777769
  1
※仕様及び外観は予告なく変更されることがあります。
 41
0.7
 11
-175.0
 21
-236.91500010416669
 31
0.0
 73
     3
  0
TEXT
  5
84
  8
DATA
 62
     7
 10
-175.0
 20
-245.65451833333341
 30
0.0
 40
3.8006293402777769
  1
　また、同一商品でも若干の個体差があることがあります。ご了承ください。
 41
0.7
 11
-175.0
 21
-241.85388899305559
 31
0.0
 73
     3
  0
LINE
  5
85
  8
DATA
  6
CONTINUOUS
 62
     7
 10
-80.0
 20
-29.999999999999989
 30
0.0
 11
-94.500000000000156
 21
-29.999999999999989
 31
0.0
  0
ARC
  5
86
  8
DATA
  6
CONTINUOUS
 62
     7
 10
-80.0
 20
-345.5754170347418
 30
0.0
 40
457.57541703474169
 50
90.000000000000028
 51
94.099936026049306
  0
ARC
  5
87
  8
DATA
  6
CONTINUOUS
 62
     7
 10
-112.0
 20
100.8545930831076
 30
0.0
 40
9.9999999999999751
 50
94.099936026049022
 51
180.0
  0
ARC
  5
88
  8
DATA
  6
CONTINUOUS
 62
     7
 10
-89.25
 20
58.25
 30
0.0
 40
88.406023550434611
 50
260.7241348076688
 51
266.5954817005113
  0
ARC
  5
89
  8
DATA
  6
CONTINUOUS
 62
     7
 10
-100.3815375026943
 20
-3.5701270864766519
 30
0.0
 40
28.318763525349919
 50
214.38115370759539
 51
228.78780269440551
  0
ARC
  5
8A
  8
DATA
  6
CONTINUOUS
 62
     7
 10
-112.45084792032191
 20
-17.35086883504135
 30
0.0
 40
10.0
 50
228.78780269440571
 51
256.23011294207498
  0
ARC
  5
8B
  8
DATA
  6
CONTINUOUS
 62
     7
 10
-95.5625
 20
51.5625
 30
0.0
 40
80.952580641385353
 50
256.23011294207498
 51
264.37303742542889
  0
ARC
  5
8C
  8
DATA
  6
CONTINUOUS
 62
     7
 10
-111.4983677625314
 20
-12.78548110893305
 30
0.0
 40
14.003275462117569
 50
180.87775948608001
 51
208.9401538158333
  0
ARC
  5
8D
  8
DATA
  6
CONTINUOUS
 62
     7
 10
-1352.4575394506351
 20
65.421361776739431
 30
0.0
 40
1229.4611476568409
 50
356.34289748763041
 51
0.1388116787327931
  0
LINE
  5
8E
  8
DATA
  6
CONTINUOUS
 62
     7
 10
-123.0
 20
68.5
 30
0.0
 11
-122.0
 21
101.0
 31
0.0
  0
LINE
  5
8F
  8
DATA
  6
CONTINUOUS
 62
     7
 10
-80.0
 20
-29.999999999999989
 30
0.0
 11
-94.500000000000156
 21
-29.999999999999989
 31
0.0
  0
LINE
  5
90
  8
DATA
  6
CONTINUOUS
 62
     7
 10
-78.999999999999929
 20
112.0
 30
0.0
 11
-80.000000000000071
 21
112.0
 31
0.0
  0
LINE
  5
91
  8
DATA
  6
CONTINUOUS
 62
     7
 10
-79.999999999999972
 20
-29.999999999999989
 30
0.0
 11
-65.499999999999801
 21
-29.999999999999989
 31
0.0
  0
ARC
  5
92
  8
DATA
  6
CONTINUOUS
 62
     7
 10
-79.999999999999972
 20
-345.5754170347418
 30
0.0
 40
457.57541703474169
 50
85.900063973950694
 51
90.0
  0
ARC
  5
93
  8
DATA
  6
CONTINUOUS
 62
     7
 10
-47.999999999999929
 20
100.8545930831076
 30
0.0
 40
9.9999999999999556
 50
0.0
 51
85.900063973950978
  0
ARC
  5
94
  8
DATA
  6
CONTINUOUS
 62
     7
 10
-70.749999999999972
 20
58.25
 30
0.0
 40
88.406023550434611
 50
273.40451829948881
 51
279.27586519233108
  0
ARC
  5
95
  8
DATA
  6
CONTINUOUS
 62
     7
 10
-59.618462497305693
 20
-3.5701270864766519
 30
0.0
 40
28.318763525349912
 50
311.21219730559449
 51
325.61884629240473
  0
ARC
  5
96
  8
DATA
  6
CONTINUOUS
 62
     7
 10
-47.549152079678038
 20
-17.35086883504135
 30
0.0
 40
10.000000000000011
 50
283.7698870579249
 51
311.21219730559437
  0
ARC
  5
97
  8
DATA
  6
CONTINUOUS
 62
     7
 10
-64.437499999999972
 20
51.5625
 30
0.0
 40
80.952580641385353
 50
275.62696257457111
 51
283.76988705792508
  0
ARC
  5
98
  8
DATA
  6
CONTINUOUS
 62
     7
 10
-48.50163223746857
 20
-12.78548110893305
 30
0.0
 40
14.003275462117569
 50
331.05984618416682
 51
359.12224051392002
  0
ARC
  5
99
  8
DATA
  6
CONTINUOUS
 62
     7
 10
1192.4575394506351
 20
65.421361776739431
 30
0.0
 40
1229.4611476568409
 50
179.86118832126721
 51
183.65710251236959
  0
LINE
  5
9A
  8
DATA
  6
CONTINUOUS
 62
     7
 10
-36.999999999999972
 20
68.5
 30
0.0
 11
-37.999999999999972
 21
101.0
 31
0.0
  0
LINE
  5
9B
  8
DATA
  6
CONTINUOUS
 62
     7
 10
-79.999999999999972
 20
-29.999999999999989
 30
0.0
 11
-65.499999999999801
 21
-29.999999999999989
 31
0.0
  0
LINE
  5
9C
  8
DATA
  6
CONTINUOUS
 62
     7
 10
-81.000000000000028
 20
112.0
 30
0.0
 11
-79.999999999999901
 21
112.0
 31
0.0
  0
LINE
  5
9D
  8
DATA
  6
CONTINUOUS
 62
     7
 10
-93.499999999999986
 20
50.72268128336713
 30
0.0
 11
-93.499999999999986
 21
87.222681283367123
 31
0.0
  0
LINE
  5
9E
  8
DATA
  6
CONTINUOUS
 62
     7
 10
-66.5
 20
50.72268128336713
 30
0.0
 11
-93.499999999999986
 21
50.72268128336713
 31
0.0
  0
LINE
  5
9F
  8
DATA
  6
CONTINUOUS
 62
     7
 10
-66.5
 20
87.222681283367123
 30
0.0
 11
-66.5
 21
50.72268128336713
 31
0.0
  0
LINE
  5
A0
  8
DATA
  6
CONTINUOUS
 62
     7
 10
-93.499999999999986
 20
87.222681283367123
 30
0.0
 11
-66.5
 21
87.222681283367123
 31
0.0
  0
POLYLINE
  5
A1
  8
DATA
  6
CONTINUOUS
 62
     7
 66
     1
 10
0.0
 20
0.0
 30
0.0
 70
   129
  0
VERTEX
  5
35E
  8
DATA
  6
CONTINUOUS
 62
     7
 10
-90.329999999999984
 20
82.052681283367136
 30
0.0
 42
-0.4142135623730951
  0
VERTEX
  5
35F
  8
DATA
  6
CONTINUOUS
 62
     7
 10
-88.329999999999998
 20
84.052681283367136
 30
0.0
 42
-0.4142135623730951
  0
VERTEX
  5
360
  8
DATA
  6
CONTINUOUS
 62
     7
 10
-86.329999999999998
 20
82.052681283367136
 30
0.0
 42
-0.4142135623730951
  0
VERTEX
  5
361
  8
DATA
  6
CONTINUOUS
 62
     7
 10
-88.329999999999998
 20
80.052681283367136
 30
0.0
 42
-0.4142135623730951
  0
VERTEX
  5
362
  8
DATA
  6
CONTINUOUS
 62
     7
 10
-90.329999999999984
 20
82.052681283367136
 30
0.0
  0
SEQEND
  5
363
  8
DATA
  6
CONTINUOUS
 62
     7
  0
POLYLINE
  5
A8
  8
DATA
  6
CONTINUOUS
 62
     7
 66
     1
 10
0.0
 20
0.0
 30
0.0
 70
   129
  0
VERTEX
  5
364
  8
DATA
  6
CONTINUOUS
 62
     7
 10
-73.670000000000002
 20
55.892681283367139
 30
0.0
 42
-0.4142135623730951
  0
VERTEX
  5
365
  8
DATA
  6
CONTINUOUS
 62
     7
 10
-71.670000000000002
 20
57.892681283367139
 30
0.0
 42
-0.4142135623730951
  0
VERTEX
  5
366
  8
DATA
  6
CONTINUOUS
 62
     7
 10
-69.670000000000002
 20
55.892681283367139
 30
0.0
 42
-0.4142135623730951
  0
VERTEX
  5
367
  8
DATA
  6
CONTINUOUS
 62
     7
 10
-71.670000000000002
 20
53.892681283367139
 30
0.0
 42
-0.4142135623730951
  0
VERTEX
  5
368
  8
DATA
  6
CONTINUOUS
 62
     7
 10
-73.670000000000002
 20
55.892681283367139
 30
0.0
  0
SEQEND
  5
369
  8
DATA
  6
CONTINUOUS
 62
     7
  0
POLYLINE
  5
AF
  8
DATA
  6
CONTINUOUS
 62
     7
 66
     1
 10
0.0
 20
0.0
 30
0.0
 70
   129
  0
VERTEX
  5
36A
  8
DATA
  6
CONTINUOUS
 62
     7
 10
-91.180000000000007
 20
82.052681283367136
 30
0.0
 42
-0.4142135623730951
  0
VERTEX
  5
36B
  8
DATA
  6
CONTINUOUS
 62
     7
 10
-88.330000000000013
 20
84.902681283367144
 30
0.0
 42
-0.4142135623730936
  0
VERTEX
  5
36C
  8
DATA
  6
CONTINUOUS
 62
     7
 10
-85.480000000000032
 20
82.052681283367136
 30
0.0
 42
-0.4142135623730951
  0
VERTEX
  5
36D
  8
DATA
  6
CONTINUOUS
 62
     7
 10
-88.330000000000013
 20
79.202681283367141
 30
0.0
 42
-0.4142135623730966
  0
VERTEX
  5
36E
  8
DATA
  6
CONTINUOUS
 62
     7
 10
-91.180000000000007
 20
82.052681283367136
 30
0.0
  0
SEQEND
  5
36F
  8
DATA
  6
CONTINUOUS
 62
     7
  0
POLYLINE
  5
B6
  8
DATA
  6
CONTINUOUS
 62
     7
 66
     1
 10
0.0
 20
0.0
 30
0.0
 70
   129
  0
VERTEX
  5
370
  8
DATA
  6
CONTINUOUS
 62
     7
 10
-74.519999999999982
 20
55.892681283367139
 30
0.0
 42
-0.4142135623730951
  0
VERTEX
  5
371
  8
DATA
  6
CONTINUOUS
 62
     7
 10
-71.669999999999973
 20
58.742681283367119
 30
0.0
 42
-0.4142135623730951
  0
VERTEX
  5
372
  8
DATA
  6
CONTINUOUS
 62
     7
 10
-68.819999999999993
 20
55.892681283367139
 30
0.0
 42
-0.4142135623730951
  0
VERTEX
  5
373
  8
DATA
  6
CONTINUOUS
 62
     7
 10
-71.669999999999973
 20
53.042681283367138
 30
0.0
 42
-0.4142135623730951
  0
VERTEX
  5
374
  8
DATA
  6
CONTINUOUS
 62
     7
 10
-74.519999999999982
 20
55.892681283367139
 30
0.0
  0
SEQEND
  5
375
  8
DATA
  6
CONTINUOUS
 62
     7
  0
LINE
  5
BD
  8
DATA
  6
CONTINUOUS
 62
     7
 10
-89.329999999999984
 20
82.052681283367136
 30
0.0
 11
-87.329999999999998
 21
82.052681283367136
 31
0.0
  0
LINE
  5
BE
  8
DATA
  6
CONTINUOUS
 62
     7
 10
-88.329999999999998
 20
81.052681283367136
 30
0.0
 11
-88.329999999999998
 21
83.052681283367136
 31
0.0
  0
LINE
  5
BF
  8
DATA
  6
CONTINUOUS
 62
     7
 10
-72.670000000000002
 20
55.892681283367139
 30
0.0
 11
-70.670000000000002
 21
55.892681283367139
 31
0.0
  0
LINE
  5
C0
  8
DATA
  6
CONTINUOUS
 62
     7
 10
-71.670000000000002
 20
54.892681283367139
 30
0.0
 11
-71.670000000000002
 21
56.892681283367132
 31
0.0
  0
LINE
  5
C1
  8
DATA
  6
CONTINUOUS
 62
     7
 10
-94.500000000000014
 20
49.47268128336713
 30
0.0
 11
-94.500000000000014
 21
88.472681283367123
 31
0.0
  0
LINE
  5
C2
  8
DATA
  6
CONTINUOUS
 62
     7
 10
-65.5
 20
49.47268128336713
 30
0.0
 11
-94.500000000000014
 21
49.47268128336713
 31
0.0
  0
LINE
  5
C3
  8
DATA
  6
CONTINUOUS
 62
     7
 10
-65.5
 20
88.472681283367123
 30
0.0
 11
-65.5
 21
49.47268128336713
 31
0.0
  0
LINE
  5
C4
  8
DATA
  6
CONTINUOUS
 62
     7
 10
-94.500000000000014
 20
88.472681283367123
 30
0.0
 11
-65.5
 21
88.472681283367123
 31
0.0
  0
ARC
  5
C5
  8
DATA
  6
CONTINUOUS
 62
     7
 10
-76.827020202020037
 20
181.01767676767949
 30
0.0
 40
203.20284854972419
 50
263.06852040815562
 51
267.55379346094998
  0
ARC
  5
C6
  8
DATA
  6
CONTINUOUS
 62
     7
 10
25.923827379214131
 20
-6.4685172847349568
 30
0.0
 40
131.14673225856509
 50
171.32297580072739
 51
184.6317138347849
  0
ARC
  5
C7
  8
DATA
  6
CONTINUOUS
 62
     7
 10
-39.349999999999838
 20
2.8461538461537961
 30
0.0
 40
65.177639035005981
 50
156.2995322310058
 51
170.85951084501531
  0
ARC
  5
C8
  8
DATA
  6
CONTINUOUS
 62
     7
 10
-84.333204458075812
 20
19.869175165086041
 30
0.0
 40
17.326285148840078
 50
98.853943391762442
 51
148.0236243761394
  0
ARC
  5
C9
  8
DATA
  6
CONTINUOUS
 62
     7
 10
-100.8076862194047
 20
-16.735697278986521
 30
0.0
 40
4.0000000000000009
 50
184.6317138347851
 51
260.66010789762407
  0
ARC
  5
CA
  8
DATA
  6
CONTINUOUS
 62
     7
 10
-97.488829787233854
 20
3.4432446808518189
 30
0.0
 40
24.450049061943272
 50
260.66010789762402
 51
260.91377002929528
  0
ARC
  5
CB
  8
DATA
  6
CONTINUOUS
 62
     7
 10
-83.172979797979906
 20
181.01767676767949
 30
0.0
 40
203.20284854972419
 50
272.44620653905002
 51
276.93147959184438
  0
ARC
  5
CC
  8
DATA
  6
CONTINUOUS
 62
     7
 10
-185.92382737921409
 20
-6.4685172847349568
 30
0.0
 40
131.14673225856509
 50
355.36828616521512
 51
8.6770241992725232
  0
ARC
  5
CD
  8
DATA
  6
CONTINUOUS
 62
     7
 10
-120.65000000000011
 20
2.8461538461537961
 30
0.0
 40
65.177639035005981
 50
9.1404891549846408
 51
23.700467768994169
  0
ARC
  5
CE
  8
DATA
  6
CONTINUOUS
 62
     7
 10
-75.666795541924145
 20
19.869175165086041
 30
0.0
 40
17.326285148840071
 50
31.976375623860559
 51
81.146056608237586
  0
ARC
  5
CF
  8
DATA
  6
CONTINUOUS
 62
     7
 10
-59.192313780595271
 20
-16.735697278986521
 30
0.0
 40
4.0000000000000124
 50
279.33989210237598
 51
355.36828616521478
  0
ARC
  5
D0
  8
DATA
  6
CONTINUOUS
 62
     7
 10
-62.511170212766068
 20
3.4432446808518189
 30
0.0
 40
24.450049061943261
 50
279.08622997070472
 51
279.3398921023761
  0
ARC
  5
D1
  8
DATA
  6
CONTINUOUS
 62
     7
 10
-80.238738293751226
 20
47.944909141810292
 30
0.0
 40
70.142506296807909
 50
265.69830771793818
 51
274.69161316599741
  0
LINE
  5
D2
  8
DATA
  6
CONTINUOUS
 62
     7
 10
-86.999999999999943
 20
36.98899872131728
 30
0.0
 11
-72.999999999999972
 21
36.98899872131728
 31
0.0
  0
TEXT
  5
D3
  8
DATA
 62
     7
 10
-84.158458585676811
 20
20.09597759865088
 30
0.0
 40
4.3435763888888879
  1
AKG
 41
0.7
 11
-84.158458585676811
 21
22.267765793095322
 31
0.0
 73
     2
  0
TEXT
  5
D4
  8
DATA
 62
     7
 10
-87.489179265183452
 20
14.49409561444658
 30
0.0
 40
3.2576822916666659
  1
STSDAM+
 41
0.7
 11
-87.489179265183452
 21
16.122936760279909
 31
0.0
 73
     2
  0
ARC
  5
D5
  8
DATA
  6
CONTINUOUS
 62
     7
 10
-849.20081698106753
 20
111.0525125889223
 30
0.0
 40
746.70092091058063
 50
355.31008935921409
 51
0.0302296930815373
  0
ARC
  5
D6
  8
DATA
  6
CONTINUOUS
 62
     7
 10
333.04500580378158
 20
2.307240979049467
 30
0.0
 40
440.63366459301028
 50
173.78631768462981
 51
184.0284144171311
  0
ARC
  5
D7
  8
DATA
  6
CONTINUOUS
 62
     7
 10
689.20081698106776
 20
111.0525125889223
 30
0.0
 40
746.70092091058029
 50
179.96977030691849
 51
184.68991064078591
  0
ARC
  5
D8
  8
DATA
  6
CONTINUOUS
 62
     7
 10
-493.04500580378158
 20
2.307240979049467
 30
0.0
 40
440.63366459301028
 50
355.97158558286878
 51
6.2136823153701934
  0
LINE
  5
D9
  8
DATA
  6
CONTINUOUS
 62
     7
 10
17.210006682544019
 20
-29.999999999999989
 30
0.0
 11
30.0
 21
-29.999999999999989
 31
0.0
  0
LINE
  5
DA
  8
DATA
  6
CONTINUOUS
 62
     7
 10
0.242001658120472
 20
112.0
 30
0.0
 11
30.0
 21
112.0
 31
0.0
  0
LINE
  5
DB
  8
DATA
  6
CONTINUOUS
 62
     7
 10
30.0
 20
-30.0
 30
0.0
 11
30.0
 21
112.0
 31
0.0
  0
LINE
  5
DC
  8
DATA
  6
CONTINUOUS
 62
     7
 10
-11.0
 20
49.472681283367123
 30
0.0
 11
-11.0
 21
88.472681283367123
 31
0.0
  0
LINE
  5
DD
  8
DATA
  6
CONTINUOUS
 62
     7
 10
-96.370682575673413
 20
160.0
 30
0.0
 11
-65.5
 21
160.0
 31
0.0
  0
LINE
  5
DE
  8
DATA
  6
CONTINUOUS
 62
     7
 10
-125.4975477328327
 20
201.0
 30
0.0
 11
-34.502452267167307
 21
201.0
 31
0.0
  0
LINE
  5
DF
  8
DATA
  6
CONTINUOUS
 62
     7
 10
-125.4975477328327
 20
173.97688222293701
 30
0.0
 11
-125.4975477328327
 21
201.0
 31
0.0
  0
LINE
  5
E0
  8
DATA
  6
CONTINUOUS
 62
     7
 10
-34.5024522671673
 20
173.97688222293701
 30
0.0
 11
-34.5024522671673
 21
201.0
 31
0.0
  0
LINE
  5
E1
  8
DATA
  6
CONTINUOUS
 62
     7
 10
-120.0
 20
183.0
 30
0.0
 11
-120.0
 21
201.0
 31
0.0
  0
LINE
  5
E2
  8
DATA
  6
CONTINUOUS
 62
     7
 10
-40.0
 20
201.0
 30
0.0
 11
-40.0
 21
183.0
 31
0.0
  0
LINE
  5
E3
  8
DATA
  6
CONTINUOUS
 62
     7
 10
-125.4975477328327
 20
183.0
 30
0.0
 11
-104.5
 21
183.0
 31
0.0
  0
LINE
  5
E4
  8
DATA
  6
CONTINUOUS
 62
     7
 10
-104.5
 20
183.0
 30
0.0
 11
-101.7798791229073
 21
183.0
 31
0.0
  0
LINE
  5
E5
  8
DATA
  6
CONTINUOUS
 62
     7
 10
-55.499999999999993
 20
183.0
 30
0.0
 11
-34.502452267167293
 21
183.0
 31
0.0
  0
LINE
  5
E6
  8
DATA
  6
CONTINUOUS
 62
     7
 10
-58.220120877092619
 20
183.0
 30
0.0
 11
-55.499999999999993
 21
183.0
 31
0.0
  0
POLYLINE
  5
E7
  8
DATA
  6
CONTINUOUS
 62
     7
 66
     1
 10
0.0
 20
0.0
 30
0.0
 70
   129
  0
VERTEX
  5
376
  8
DATA
  6
CONTINUOUS
 62
     7
 10
-77.522979817376552
 20
185.9581077210444
 30
0.0
 42
-0.4142135623730951
  0
VERTEX
  5
377
  8
DATA
  6
CONTINUOUS
 62
     7
 10
-76.022979817376552
 20
187.4581077210444
 30
0.0
 42
-0.4142135623730895
  0
VERTEX
  5
378
  8
DATA
  6
CONTINUOUS
 62
     7
 10
-74.522979817376552
 20
185.9581077210444
 30
0.0
 42
-0.4142135623730951
  0
VERTEX
  5
379
  8
DATA
  6
CONTINUOUS
 62
     7
 10
-76.022979817376552
 20
184.4581077210444
 30
0.0
 42
-0.4142135623731006
  0
VERTEX
  5
37A
  8
DATA
  6
CONTINUOUS
 62
     7
 10
-77.522979817376552
 20
185.9581077210444
 30
0.0
  0
SEQEND
  5
37B
  8
DATA
  6
CONTINUOUS
 62
     7
  0
POLYLINE
  5
EE
  8
DATA
  6
CONTINUOUS
 62
     7
 66
     1
 10
0.0
 20
0.0
 30
0.0
 70
   129
  0
VERTEX
  5
37C
  8
DATA
  6
CONTINUOUS
 62
     7
 10
-85.522979817376552
 20
185.9581077210444
 30
0.0
 42
-0.4142135623730951
  0
VERTEX
  5
37D
  8
DATA
  6
CONTINUOUS
 62
     7
 10
-84.022979817376552
 20
187.4581077210444
 30
0.0
 42
-0.4142135623730895
  0
VERTEX
  5
37E
  8
DATA
  6
CONTINUOUS
 62
     7
 10
-82.522979817376552
 20
185.9581077210444
 30
0.0
 42
-0.4142135623730951
  0
VERTEX
  5
37F
  8
DATA
  6
CONTINUOUS
 62
     7
 10
-84.022979817376552
 20
184.4581077210444
 30
0.0
 42
-0.4142135623731006
  0
VERTEX
  5
380
  8
DATA
  6
CONTINUOUS
 62
     7
 10
-85.522979817376552
 20
185.9581077210444
 30
0.0
  0
SEQEND
  5
381
  8
DATA
  6
CONTINUOUS
 62
     7
  0
POLYLINE
  5
F5
  8
DATA
  6
CONTINUOUS
 62
     7
 66
     1
 10
0.0
 20
0.0
 30
0.0
 70
   129
  0
VERTEX
  5
382
  8
DATA
  6
CONTINUOUS
 62
     7
 10
-81.522979817376552
 20
190.9581077210444
 30
0.0
 42
-0.4142135623730951
  0
VERTEX
  5
383
  8
DATA
  6
CONTINUOUS
 62
     7
 10
-80.022979817376552
 20
192.4581077210444
 30
0.0
 42
-0.4142135623730895
  0
VERTEX
  5
384
  8
DATA
  6
CONTINUOUS
 62
     7
 10
-78.522979817376552
 20
190.9581077210444
 30
0.0
 42
-0.4142135623730951
  0
VERTEX
  5
385
  8
DATA
  6
CONTINUOUS
 62
     7
 10
-80.022979817376552
 20
189.4581077210444
 30
0.0
 42
-0.4142135623731006
  0
VERTEX
  5
386
  8
DATA
  6
CONTINUOUS
 62
     7
 10
-81.522979817376552
 20
190.9581077210444
 30
0.0
  0
SEQEND
  5
387
  8
DATA
  6
CONTINUOUS
 62
     7
  0
POLYLINE
  5
FC
  8
DATA
  6
CONTINUOUS
 62
     7
 66
     1
 10
0.0
 20
0.0
 30
0.0
 70
   129
  0
VERTEX
  5
388
  8
DATA
  6
CONTINUOUS
 62
     7
 10
-90.022979817376552
 20
176.95810772104431
 30
0.0
 42
-0.4142135623730951
  0
VERTEX
  5
389
  8
DATA
  6
CONTINUOUS
 62
     7
 10
-88.022979817376552
 20
178.95810772104431
 30
0.0
 42
-0.4142135623730992
  0
VERTEX
  5
38A
  8
DATA
  6
CONTINUOUS
 62
     7
 10
-86.022979817376537
 20
176.95810772104431
 30
0.0
 42
-0.4142135623730951
  0
VERTEX
  5
38B
  8
DATA
  6
CONTINUOUS
 62
     7
 10
-88.022979817376552
 20
174.95810772104431
 30
0.0
 42
-0.414213562373091
  0
VERTEX
  5
38C
  8
DATA
  6
CONTINUOUS
 62
     7
 10
-90.022979817376552
 20
176.95810772104431
 30
0.0
  0
SEQEND
  5
38D
  8
DATA
  6
CONTINUOUS
 62
     7
  0
POLYLINE
  5
103
  8
DATA
  6
CONTINUOUS
 62
     7
 66
     1
 10
0.0
 20
0.0
 30
0.0
 70
   129
  0
VERTEX
  5
38E
  8
DATA
  6
CONTINUOUS
 62
     7
 10
-74.022979817376552
 20
194.9581077210444
 30
0.0
 42
-0.414213562373091
  0
VERTEX
  5
38F
  8
DATA
  6
CONTINUOUS
 62
     7
 10
-72.02297981737658
 20
196.9581077210444
 30
0.0
 42
-0.4142135623730951
  0
VERTEX
  5
390
  8
DATA
  6
CONTINUOUS
 62
     7
 10
-70.022979817376608
 20
194.9581077210444
 30
0.0
 42
-0.414213562373091
  0
VERTEX
  5
391
  8
DATA
  6
CONTINUOUS
 62
     7
 10
-72.02297981737658
 20
192.9581077210444
 30
0.0
 42
-0.4142135623730951
  0
VERTEX
  5
392
  8
DATA
  6
CONTINUOUS
 62
     7
 10
-74.022979817376552
 20
194.9581077210444
 30
0.0
  0
SEQEND
  5
393
  8
DATA
  6
CONTINUOUS
 62
     7
  0
LINE
  5
10A
  8
DATA
  6
CONTINUOUS
 62
     7
 10
-86.772979817376552
 20
176.95810772104431
 30
0.0
 11
-89.272979817376552
 21
176.95810772104431
 31
0.0
  0
LINE
  5
10B
  8
DATA
  6
CONTINUOUS
 62
     7
 10
-88.022979817376552
 20
178.20810772104431
 30
0.0
 11
-88.022979817376552
 21
175.70810772104431
 31
0.0
  0
LINE
  5
10C
  8
DATA
  6
CONTINUOUS
 62
     7
 10
-70.772979817376608
 20
194.9581077210444
 30
0.0
 11
-73.272979817376552
 21
194.9581077210444
 31
0.0
  0
LINE
  5
10D
  8
DATA
  6
CONTINUOUS
 62
     7
 10
-72.022979817376608
 20
196.2081077210444
 30
0.0
 11
-72.022979817376608
 21
193.7081077210444
 31
0.0
  0
LINE
  5
10E
  8
DATA
  6
CONTINUOUS
 62
     7
 10
-68.922979817376572
 20
195.9581077210444
 30
0.0
 11
-68.922979817376572
 21
175.95810772104431
 31
0.0
  0
LINE
  5
10F
  8
DATA
  6
CONTINUOUS
 62
     7
 10
-89.122979817376574
 20
197.9581077210444
 30
0.0
 11
-70.922979817376572
 21
197.9581077210444
 31
0.0
  0
LINE
  5
110
  8
DATA
  6
CONTINUOUS
 62
     7
 10
-91.12297981737656
 20
175.95810772104431
 30
0.0
 11
-91.12297981737656
 21
195.9581077210444
 31
0.0
  0
LINE
  5
111
  8
DATA
  6
CONTINUOUS
 62
     7
 10
-70.922979817376572
 20
173.95810772104431
 30
0.0
 11
-89.122979817376574
 21
173.95810772104431
 31
0.0
  0
ARC
  5
112
  8
DATA
  6
CONTINUOUS
 62
     7
 10
-70.922979817376572
 20
175.95810772104431
 30
0.0
 40
2.0
 50
270.0
 51
0.0
  0
ARC
  5
113
  8
DATA
  6
CONTINUOUS
 62
     7
 10
-70.922979817376572
 20
195.9581077210444
 30
0.0
 40
2.0
 50
0.0
 51
90.0
  0
ARC
  5
114
  8
DATA
  6
CONTINUOUS
 62
     7
 10
-89.122979817376574
 20
195.9581077210444
 30
0.0
 40
2.0
 50
90.0
 51
180.0
  0
ARC
  5
115
  8
DATA
  6
CONTINUOUS
 62
     7
 10
-89.122979817376574
 20
175.95810772104431
 30
0.0
 40
2.0
 50
180.0
 51
270.0
  0
LINE
  5
116
  8
DATA
  6
CONTINUOUS
 62
     7
 10
-103.5
 20
201.0
 30
0.0
 11
-103.5
 21
184.0
 31
0.0
  0
LINE
  5
117
  8
DATA
  6
CONTINUOUS
 62
     7
 10
-100.5
 20
201.0
 30
0.0
 11
-100.78001448738959
 21
183.9835467133687
 31
0.0
  0
LINE
  5
118
  8
DATA
  6
CONTINUOUS
 62
     7
 10
-56.499999999999993
 20
201.0
 30
0.0
 11
-56.499999999999993
 21
184.0
 31
0.0
  0
LINE
  5
119
  8
DATA
  6
CONTINUOUS
 62
     7
 10
-59.499999999999993
 20
201.0
 30
0.0
 11
-59.219985512610378
 21
183.9835467133687
 31
0.0
  0
LINE
  5
11A
  8
DATA
  6
CONTINUOUS
 62
     7
 10
-113.5
 20
201.0
 30
0.0
 11
-113.5
 21
202.0
 31
0.0
  0
LINE
  5
11B
  8
DATA
  6
CONTINUOUS
 62
     7
 10
-105.5
 20
202.0
 30
0.0
 11
-105.5
 21
201.0
 31
0.0
  0
LINE
  5
11C
  8
DATA
  6
CONTINUOUS
 62
     7
 10
-113.5
 20
202.0
 30
0.0
 11
-105.5
 21
202.0
 31
0.0
  0
LINE
  5
11D
  8
DATA
  6
CONTINUOUS
 62
     7
 10
-46.499999999999993
 20
201.0
 30
0.0
 11
-46.499999999999993
 21
202.0
 31
0.0
  0
LINE
  5
11E
  8
DATA
  6
CONTINUOUS
 62
     7
 10
-54.499999999999993
 20
202.0
 30
0.0
 11
-54.499999999999993
 21
201.0
 31
0.0
  0
LINE
  5
11F
  8
DATA
  6
CONTINUOUS
 62
     7
 10
-46.499999999999993
 20
202.0
 30
0.0
 11
-54.499999999999993
 21
202.0
 31
0.0
  0
CIRCLE
  5
120
  8
DATA
  6
CONTINUOUS
 62
     7
 10
-80.022979817376552
 20
185.9581077210444
 30
0.0
 40
8.0000028487245096
  0
LINE
  5
121
  8
DATA
  6
CONTINUOUS
 62
     7
 10
-94.500000000000014
 20
160.0
 30
0.0
 11
-94.500000000000014
 21
162.64999999999989
 31
0.0
  0
LINE
  5
122
  8
DATA
  6
CONTINUOUS
 62
     7
 10
-65.5
 20
160.0
 30
0.0
 11
-65.5
 21
162.58467239119989
 31
0.0
  0
ARC
  5
123
  8
DATA
  6
CONTINUOUS
 62
     7
 10
-120.4975477328326
 20
173.97688222293701
 30
0.0
 40
5.000000000000056
 50
180.0
 51
241.92727185958279
  0
ARC
  5
124
  8
DATA
  6
CONTINUOUS
 62
     7
 10
-18.210805785788729
 20
365.7625789241165
 30
0.0
 40
222.3576109486344
 50
241.9272718595833
 51
246.02575927091601
  0
LINE
  5
125
  8
DATA
  6
CONTINUOUS
 62
     7
 10
-92.54481829110027
 20
167.0
 30
0.0
 11
-67.455181708899772
 21
167.0
 31
0.0
  0
LINE
  5
126
  8
DATA
  6
CONTINUOUS
 62
     7
 10
-122.5590061885666
 20
170.88473727199579
 30
0.0
 11
-98.206608513699322
 21
167.4027257064923
 31
0.0
  0
ARC
  5
127
  8
DATA
  6
CONTINUOUS
 62
     7
 10
-92.544818291100185
 20
207.0
 30
0.0
 40
40.0
 50
261.86275554042697
 51
269.99999999999989
  0
ARC
  5
128
  8
DATA
  6
CONTINUOUS
 62
     7
 10
-122.20250865051899
 20
174.28538062283741
 30
0.0
 40
3.4192785341730638
 50
199.30459788682739
 51
264.0154063720376
  0
LINE
  5
129
  8
DATA
  6
CONTINUOUS
 62
     7
 10
-65.499999999999972
 20
160.0
 30
0.0
 11
-65.499999999999972
 21
162.64999999999989
 31
0.0
  0
LINE
  5
12A
  8
DATA
  6
CONTINUOUS
 62
     7
 10
-94.499999999999943
 20
160.0
 30
0.0
 11
-94.499999999999943
 21
162.58467239119989
 31
0.0
  0
ARC
  5
12B
  8
DATA
  6
CONTINUOUS
 62
     7
 10
-39.502452267167342
 20
173.97688222293701
 30
0.0
 40
5.0000000000000444
 50
298.0727281404171
 51
0.0
  0
LINE
  5
12C
  8
DATA
  6
CONTINUOUS
 62
     7
 10
-37.440993811433373
 20
170.88473727199579
 30
0.0
 11
-61.793391486300642
 21
167.4027257064923
 31
0.0
  0
ARC
  5
12D
  8
DATA
  6
CONTINUOUS
 62
     7
 10
-80.210686469150843
 20
256.14452504581487
 30
0.0
 40
94.644759548197726
 50
261.31636999467611
 51
274.85529585330409
  0
ARC
  5
12E
  8
DATA
  6
CONTINUOUS
 62
     7
 10
-67.455181708899758
 20
207.0
 30
0.0
 40
40.0
 50
270.00000000000011
 51
278.13724445957303
  0
ARC
  5
12F
  8
DATA
  6
CONTINUOUS
 62
     7
 10
-37.797491349480957
 20
174.28538062283741
 30
0.0
 40
3.4192785341730958
 50
275.9845936279624
 51
340.6954021131728
  0
ARC
  5
130
  8
DATA
  6
CONTINUOUS
 62
     7
 10
-96.370682575673413
 20
190.0000000000004
 30
0.0
 40
30.000000000000369
 50
246.0257592709163
 51
270.0
  0
ARC
  5
131
  8
DATA
  6
CONTINUOUS
 62
     7
 10
-63.62931742432658
 20
190.0000000000004
 30
0.0
 40
30.000000000000369
 50
270.0
 51
293.97424072908359
  0
ARC
  5
132
  8
DATA
  6
CONTINUOUS
 62
     7
 10
-141.78919421421119
 20
365.7625789241165
 30
0.0
 40
222.3576109486344
 50
293.97424072908399
 51
298.0727281404167
  0
LINE
  5
133
  8
DATA
  6
CONTINUOUS
 62
     7
 10
-87.799999999999983
 20
161.8045397264041
 30
0.0
 11
-87.799999999999983
 21
161.8393851422596
 31
0.0
  0
LINE
  5
134
  8
DATA
  6
CONTINUOUS
 62
     7
 10
-11.0
 20
88.472681283367123
 30
0.0
 11
-10.141185256586359
 21
88.472681283367123
 31
0.0
  0
LINE
  5
135
  8
DATA
  6
CONTINUOUS
 62
     7
 10
-11.000000000000011
 20
49.47268128336713
 30
0.0
 11
-9.6721148815902875
 21
49.47268128336713
 31
0.0
  0
ARC
  5
136
  8
DATA
  6
CONTINUOUS
 62
     7
 10
273.38811188811189
 20
90.524475524475505
 30
0.0
 40
286.02157574093877
 50
186.1263231479746
 51
204.27317231557609
  0
ARC
  5
137
  8
DATA
  6
CONTINUOUS
 62
     7
 10
0.242001658120472
 20
104.0
 30
0.0
 40
8.0
 50
90.0
 51
168.76324943589319
  0
ARC
  5
138
  8
DATA
  6
CONTINUOUS
 62
     7
 10
166.2703703703703
 20
71.014814814814798
 30
0.0
 40
177.2732750878051
 50
168.76324943589319
 51
180.3279959905199
  0
ARC
  5
139
  8
DATA
  6
CONTINUOUS
 62
     7
 10
17.210006682544019
 20
-24.999999999999989
 30
0.0
 40
4.9999999999999956
 50
204.27317231557629
 51
270.0
  0
LINE
  5
13A
  8
DATA
  6
CONTINUOUS
 62
     7
 10
31.0
 20
-14.000000000000011
 30
0.0
 11
31.0
 21
-6.0
 31
0.0
  0
LINE
  5
13B
  8
DATA
  6
CONTINUOUS
 62
     7
 10
31.0
 20
88.0
 30
0.0
 11
31.0
 21
96.0
 31
0.0
  0
LINE
  5
13C
  8
DATA
  6
CONTINUOUS
 62
     7
 10
30.0
 20
96.0
 30
0.0
 11
31.0
 21
96.0
 31
0.0
  0
LINE
  5
13D
  8
DATA
  6
CONTINUOUS
 62
     7
 10
30.0
 20
88.0
 30
0.0
 11
31.0
 21
88.0
 31
0.0
  0
LINE
  5
13E
  8
DATA
  6
CONTINUOUS
 62
     7
 10
30.0
 20
-6.0
 30
0.0
 11
31.0
 21
-6.0
 31
0.0
  0
LINE
  5
13F
  8
DATA
  6
CONTINUOUS
 62
     7
 10
30.0
 20
-14.0
 30
0.0
 11
31.0
 21
-14.0
 31
0.0
  0
ARC
  5
140
  8
DATA
  6
CONTINUOUS
 62
     7
 10
426.87971718024392
 20
117.3170641620936
 30
0.0
 40
414.71641616610202
 50
180.73460724184039
 51
196.86507361421269
  0
LINE
  5
141
  8
DATA
  6
CONTINUOUS
 62
     7
 10
30.0
 20
109.5
 30
0.0
 11
12.23698018182332
 21
109.5
 31
0.0
  0
LINE
  5
142
  8
DATA
  6
CONTINUOUS
 62
     7
 10
-96.370682575673413
 20
-78.999999999966619
 30
0.0
 11
-65.5
 21
-78.999999999966619
 31
0.0
  0
LINE
  5
143
  8
DATA
  6
CONTINUOUS
 62
     7
 10
-125.4975477328327
 20
-119.99999999996631
 30
0.0
 11
-34.502452267167307
 21
-119.99999999996631
 31
0.0
  0
LINE
  5
144
  8
DATA
  6
CONTINUOUS
 62
     7
 10
-125.4975477328327
 20
-92.976882222903697
 30
0.0
 11
-125.4975477328327
 21
-119.99999999996631
 31
0.0
  0
LINE
  5
145
  8
DATA
  6
CONTINUOUS
 62
     7
 10
-34.5024522671673
 20
-92.976882222903697
 30
0.0
 11
-34.5024522671673
 21
-119.99999999996631
 31
0.0
  0
LINE
  5
146
  8
DATA
  6
CONTINUOUS
 62
     7
 10
-113.5
 20
-119.99999999996631
 30
0.0
 11
-113.5
 21
-120.99999999996631
 31
0.0
  0
LINE
  5
147
  8
DATA
  6
CONTINUOUS
 62
     7
 10
-105.5
 20
-120.99999999996631
 30
0.0
 11
-105.5
 21
-119.99999999996631
 31
0.0
  0
LINE
  5
148
  8
DATA
  6
CONTINUOUS
 62
     7
 10
-113.5
 20
-120.99999999996631
 30
0.0
 11
-105.5
 21
-120.99999999996631
 31
0.0
  0
LINE
  5
149
  8
DATA
  6
CONTINUOUS
 62
     7
 10
-46.499999999999993
 20
-119.99999999996631
 30
0.0
 11
-46.499999999999993
 21
-120.99999999996631
 31
0.0
  0
LINE
  5
14A
  8
DATA
  6
CONTINUOUS
 62
     7
 10
-54.499999999999993
 20
-120.99999999996631
 30
0.0
 11
-54.499999999999993
 21
-119.99999999996631
 31
0.0
  0
LINE
  5
14B
  8
DATA
  6
CONTINUOUS
 62
     7
 10
-46.499999999999993
 20
-120.99999999996631
 30
0.0
 11
-54.499999999999993
 21
-120.99999999996631
 31
0.0
  0
ARC
  5
14C
  8
DATA
  6
CONTINUOUS
 62
     7
 10
-120.4975477328326
 20
-92.976882222903697
 30
0.0
 40
5.0000000000000444
 50
118.0727281404172
 51
180.0
  0
ARC
  5
14D
  8
DATA
  6
CONTINUOUS
 62
     7
 10
-18.210805785788729
 20
-284.76257892408353
 30
0.0
 40
222.3576109486348
 50
113.9742407290839
 51
118.0727281404167
  0
LINE
  5
14E
  8
DATA
  6
CONTINUOUS
 62
     7
 10
-63.62931742432658
 20
-78.999999999966619
 30
0.0
 11
-94.499999999999943
 21
-78.999999999966619
 31
0.0
  0
ARC
  5
14F
  8
DATA
  6
CONTINUOUS
 62
     7
 10
-39.502452267167342
 20
-92.976882222903697
 30
0.0
 40
5.0000000000000417
 50
0.0
 51
61.927271859582788
  0
ARC
  5
150
  8
DATA
  6
CONTINUOUS
 62
     7
 10
-96.370682575673413
 20
-108.9999999999668
 30
0.0
 40
30.00000000000021
 50
90.0
 51
113.9742407290838
  0
ARC
  5
151
  8
DATA
  6
CONTINUOUS
 62
     7
 10
-63.62931742432658
 20
-108.9999999999668
 30
0.0
 40
30.000000000000231
 50
66.025759270916211
 51
90.0
  0
ARC
  5
152
  8
DATA
  6
CONTINUOUS
 62
     7
 10
-141.78919421421119
 20
-284.76257892408353
 30
0.0
 40
222.3576109486348
 50
61.927271859583321
 51
66.025759270916055
  0
ARC
  5
153
  8
DATA
  6
CONTINUOUS
 62
     7
 10
-78.514241144244693
 20
-337.24253143871442
 30
0.0
 40
233.59818657870039
 50
79.140103110718627
 51
83.383918106644416
  0
ARC
  5
154
  8
DATA
  6
CONTINUOUS
 62
     7
 10
-68.038957287513213
 20
-294.21956928945173
 30
0.0
 40
189.73306746866899
 50
85.029515279983386
 51
89.316550727697887
  0
LINE
  5
155
  8
DATA
  6
CONTINUOUS
 62
     7
 10
-65.775791433525598
 20
-104.49999999996631
 30
0.0
 11
-80.0
 21
-104.3303193326098
 31
0.0
  0
ARC
  5
156
  8
DATA
  6
CONTINUOUS
 62
     7
 10
-81.485758855755293
 20
-337.24253143871442
 30
0.0
 40
233.59818657870039
 50
96.616081893355584
 51
100.8598968892814
  0
ARC
  5
157
  8
DATA
  6
CONTINUOUS
 62
     7
 10
-91.961042712486787
 20
-294.21956928945173
 30
0.0
 40
189.73306746866899
 50
90.683449272302127
 51
94.970484720016628
  0
LINE
  5
158
  8
DATA
  6
CONTINUOUS
 62
     7
 10
-94.224208566474388
 20
-104.49999999996631
 30
0.0
 11
-79.999999999999417
 21
-104.3303193326098
 31
0.0
  0
ARC
  5
159
  8
DATA
  6
CONTINUOUS
 62
     7
 10
-74.60044994411713
 20
209.77406395840609
 30
0.0
 40
47.994745474284258
 50
272.86683582915521
 51
280.93022726661758
  0
LINE
  5
15A
  8
DATA
  6
CONTINUOUS
 62
     7
 10
-63.62931742432658
 20
160.0
 30
0.0
 11
-65.499999999999972
 21
160.0
 31
0.0
  0
ARC
  5
15B
  8
DATA
  6
CONTINUOUS
 62
     7
 10
-76.827020202020037
 20
100.64541668251761
 30
0.0
 40
203.20284854972419
 50
263.06852040815562
 51
267.55379346094998
  0
ARC
  5
15C
  8
DATA
  6
CONTINUOUS
 62
     7
 10
-100.8076862194047
 20
-97.107957364148405
 30
0.0
 40
4.0000000000000009
 50
184.6317138347851
 51
260.66010789762407
  0
ARC
  5
15D
  8
DATA
  6
CONTINUOUS
 62
     7
 10
-83.172979797979906
 20
100.64541668251761
 30
0.0
 40
203.20284854972419
 50
272.44620653905002
 51
276.93147959184438
  0
ARC
  5
15E
  8
DATA
  6
CONTINUOUS
 62
     7
 10
-59.192313780595271
 20
-97.107957364148405
 30
0.0
 40
4.0000000000000284
 50
279.33989210237598
 51
355.36828616521501
  0
ARC
  5
15F
  8
DATA
  6
CONTINUOUS
 62
     7
 10
-80.238738293751226
 20
-32.427350943351591
 30
0.0
 40
70.142506296807909
 50
265.69830771793818
 51
274.69161316599741
  0
ARC
  5
160
  8
DATA
  6
CONTINUOUS
 62
     7
 10
-77.504713024021015
 20
-102.9323989423952
 30
0.0
 40
27.83891248340089
 50
126.19531145320489
 51
168.60236487405859
  0
ARC
  5
161
  8
DATA
  6
CONTINUOUS
 62
     7
 10
-82.495286975978928
 20
-102.9323989423952
 30
0.0
 40
27.83891248340089
 50
11.39763512594139
 51
53.598618277653777
  0
TEXT
  5
162
  8
DATA
 62
     7
 10
-84.369869346489423
 20
-86.781507202255924
 30
0.0
 40
4.3435763888888879
  1
AKG
 41
0.7
 11
-84.369869346489423
 21
-84.609719007811492
 31
0.0
 73
     2
  0
CIRCLE
  5
163
  8
DATA
  6
CONTINUOUS
 62
     7
 10
-79.999999999999986
 20
68.972681283367137
 30
0.0
 40
9.5
  0
CIRCLE
  5
164
  8
DATA
  6
CONTINUOUS
 62
     7
 10
-79.999999999999986
 20
68.972681283367137
 30
0.0
 40
6.0
  0
POLYLINE
  5
165
  8
DATA
  6
CONTINUOUS
 62
     7
 66
     1
 10
0.0
 20
0.0
 30
0.0
 70
     1
  0
VERTEX
  5
394
  8
DATA
  6
CONTINUOUS
 62
     7
 10
-83.499999999999986
 20
72.472681283367123
 30
0.0
  0
VERTEX
  5
395
  8
DATA
  6
CONTINUOUS
 62
     7
 10
-76.499999999999986
 20
72.472681283367123
 30
0.0
  0
VERTEX
  5
396
  8
DATA
  6
CONTINUOUS
 62
     7
 10
-76.499999999999986
 20
65.472681283367137
 30
0.0
  0
VERTEX
  5
397
  8
DATA
  6
CONTINUOUS
 62
     7
 10
-83.499999999999986
 20
65.472681283367137
 30
0.0
  0
SEQEND
  5
398
  8
DATA
  6
CONTINUOUS
 62
     7
  0
LINE
  5
16C
  8
DATA
  6
CONTINUOUS
 62
     7
 10
-80.492588205010577
 20
74.95242683483373
 30
0.0
 11
-80.492588205010577
 21
73.799967964194053
 31
0.0
  0
LINE
  5
16D
  8
DATA
  6
CONTINUOUS
 62
     7
 10
-79.507411794989423
 20
74.95242683483373
 30
0.0
 11
-79.507411794989423
 21
73.799967964194053
 31
0.0
  0
LINE
  5
16E
  8
DATA
  6
CONTINUOUS
 62
     7
 10
-79.507411794989423
 20
73.799967964194053
 30
0.0
 11
-80.492588205010577
 21
73.799967964194053
 31
0.0
  0
CIRCLE
  5
16F
  8
DATA
  6
CONTINUOUS
 62
     7
 10
-81.499999999999986
 20
70.472681283367137
 30
0.0
 40
0.5
  0
CIRCLE
  5
170
  8
DATA
  6
CONTINUOUS
 62
     7
 10
-81.499999999999986
 20
67.472681283367123
 30
0.0
 40
0.5
  0
CIRCLE
  5
171
  8
DATA
  6
CONTINUOUS
 62
     7
 10
-78.499999999999986
 20
70.472681283367137
 30
0.0
 40
0.5
  0
CIRCLE
  5
172
  8
DATA
  6
CONTINUOUS
 62
     7
 10
-78.499999999999986
 20
67.472681283367123
 30
0.0
 40
0.5
  0
POLYLINE
  5
173
  8
DATA
  6
CONTINUOUS
 62
     7
 66
     1
 10
0.0
 20
0.0
 30
0.0
 70
     1
  0
VERTEX
  5
399
  8
DATA
  6
CONTINUOUS
 62
     7
 10
-87.499999999999986
 20
3.145493272096942
 30
0.0
  0
VERTEX
  5
39A
  8
DATA
  6
CONTINUOUS
 62
     7
 10
-72.499999999999986
 20
3.145493272096942
 30
0.0
  0
VERTEX
  5
39B
  8
DATA
  6
CONTINUOUS
 62
     7
 10
-72.499999999999986
 20
-11.85450672790305
 30
0.0
  0
VERTEX
  5
39C
  8
DATA
  6
CONTINUOUS
 62
     7
 10
-87.499999999999986
 20
-11.85450672790305
 30
0.0
  0
SEQEND
  5
39D
  8
DATA
  6
CONTINUOUS
 62
     7
  0
LINE
  5
17A
  8
DATA
  6
CONTINUOUS
 62
     7
 10
-22.0
 20
62.972681283367137
 30
0.0
 11
-22.0
 21
74.972681283367123
 31
0.0
  0
TEXT
  5
17B
  8
DATA
 62
     7
 10
-87.656830792276125
 20
-92.774386293296985
 30
0.0
 40
3.2576822916666659
  1
STSDAM+
 41
0.7
 11
-87.656830792276125
 21
-91.145545147463665
 31
0.0
 73
     2
  0
LINE
  5
17C
  8
DATA
  6
CONTINUOUS
 62
     7
 10
-65.499999999999972
 20
-78.999999999966647
 30
0.0
 11
-65.499999999999972
 21
-80.614610165332593
 31
0.0
  0
LINE
  5
17D
  8
DATA
  6
CONTINUOUS
 62
     7
 10
-94.499999999999943
 20
-78.999999999966647
 30
0.0
 11
-94.499999999999943
 21
-80.549282556532546
 31
0.0
  0
ARC
  5
17E
  8
DATA
  6
CONTINUOUS
 62
     7
 10
-80.210686469150843
 20
-174.1091352111475
 30
0.0
 40
94.644759548197726
 50
85.144704146695915
 51
98.68363000532392
  0
ARC
  5
17F
  8
DATA
  6
CONTINUOUS
 62
     7
 10
-74.60044994411713
 20
-127.7386741237386
 30
0.0
 40
47.994745474284258
 50
79.069772733382379
 51
87.133164170844836
  0
LINE
  5
180
  8
DATA
  6
CONTINUOUS
 62
     7
 10
109.9892837173698
 20
-29.999999999999989
 30
0.0
 11
124.48928371737
 21
-29.999999999999989
 31
0.0
  0
ARC
  5
181
  8
DATA
  6
CONTINUOUS
 62
     7
 10
109.9892837173698
 20
-345.5754170347418
 30
0.0
 40
457.57541703474169
 50
85.900063973950694
 51
90.0
  0
ARC
  5
182
  8
DATA
  6
CONTINUOUS
 62
     7
 10
141.98928371736969
 20
100.8545930831076
 30
0.0
 40
9.9999999999999716
 50
0.0
 51
85.900063973950978
  0
ARC
  5
183
  8
DATA
  6
CONTINUOUS
 62
     7
 10
119.2392837173698
 20
58.25
 30
0.0
 40
88.406023550434611
 50
273.40451829948881
 51
279.27586519233103
  0
ARC
  5
184
  8
DATA
  6
CONTINUOUS
 62
     7
 10
130.37082122006399
 20
-3.5701270864766519
 30
0.0
 40
28.31876352534988
 50
311.21219730559449
 51
325.61884629240473
  0
ARC
  5
185
  8
DATA
  6
CONTINUOUS
 62
     7
 10
142.44013163769159
 20
-17.35086883504135
 30
0.0
 40
10.000000000000011
 50
283.7698870579249
 51
311.21219730559432
  0
ARC
  5
186
  8
DATA
  6
CONTINUOUS
 62
     7
 10
125.5517837173698
 20
51.5625
 30
0.0
 40
80.952580641385325
 50
275.62696257457088
 51
283.7698870579249
  0
ARC
  5
187
  8
DATA
  6
CONTINUOUS
 62
     7
 10
141.48765147990099
 20
-12.78548110893305
 30
0.0
 40
14.003275462117591
 50
331.05984618416682
 51
359.12224051392002
  0
ARC
  5
188
  8
DATA
  6
CONTINUOUS
 62
     7
 10
1382.4468231680059
 20
65.421361776739431
 30
0.0
 40
1229.4611476568421
 50
179.86118832126721
 51
183.65710251236959
  0
LINE
  5
189
  8
DATA
  6
CONTINUOUS
 62
     7
 10
152.98928371736969
 20
68.5
 30
0.0
 11
151.98928371736969
 21
101.0
 31
0.0
  0
LINE
  5
18A
  8
DATA
  6
CONTINUOUS
 62
     7
 10
109.9892837173698
 20
-29.999999999999989
 30
0.0
 11
124.48928371737
 21
-29.999999999999989
 31
0.0
  0
LINE
  5
18B
  8
DATA
  6
CONTINUOUS
 62
     7
 10
108.9892837173698
 20
112.0
 30
0.0
 11
109.9892837173699
 21
112.0
 31
0.0
  0
LINE
  5
18C
  8
DATA
  6
CONTINUOUS
 62
     7
 10
109.9892837173698
 20
-29.999999999999989
 30
0.0
 11
95.489283717369631
 21
-29.999999999999989
 31
0.0
  0
ARC
  5
18D
  8
DATA
  6
CONTINUOUS
 62
     7
 10
109.9892837173698
 20
-345.5754170347418
 30
0.0
 40
457.57541703474169
 50
90.000000000000028
 51
94.099936026049306
  0
ARC
  5
18E
  8
DATA
  6
CONTINUOUS
 62
     7
 10
77.989283717369801
 20
100.8545930831076
 30
0.0
 40
9.9999999999999751
 50
94.099936026049022
 51
180.0
  0
ARC
  5
18F
  8
DATA
  6
CONTINUOUS
 62
     7
 10
100.7392837173698
 20
58.25
 30
0.0
 40
88.406023550434611
 50
260.7241348076688
 51
266.5954817005113
  0
ARC
  5
190
  8
DATA
  6
CONTINUOUS
 62
     7
 10
89.607746214675544
 20
-3.5701270864766519
 30
0.0
 40
28.318763525349919
 50
214.38115370759539
 51
228.78780269440551
  0
ARC
  5
191
  8
DATA
  6
CONTINUOUS
 62
     7
 10
77.538435797047896
 20
-17.35086883504135
 30
0.0
 40
9.9999999999999716
 50
228.7878026944058
 51
256.23011294207498
  0
ARC
  5
192
  8
DATA
  6
CONTINUOUS
 62
     7
 10
94.426783717369844
 20
51.5625
 30
0.0
 40
80.952580641385353
 50
256.23011294207498
 51
264.37303742542889
  0
ARC
  5
193
  8
DATA
  6
CONTINUOUS
 62
     7
 10
78.490915954838414
 20
-12.78548110893305
 30
0.0
 40
14.0032754621176
 50
180.87775948608001
 51
208.9401538158333
  0
ARC
  5
194
  8
DATA
  6
CONTINUOUS
 62
     7
 10
-1162.468255733264
 20
65.421361776739431
 30
0.0
 40
1229.4611476568391
 50
356.34289748763041
 51
0.1388116787327931
  0
LINE
  5
195
  8
DATA
  6
CONTINUOUS
 62
     7
 10
66.989283717369815
 20
68.5
 30
0.0
 11
67.989283717369858
 21
101.0
 31
0.0
  0
LINE
  5
196
  8
DATA
  6
CONTINUOUS
 62
     7
 10
109.9892837173698
 20
-29.999999999999989
 30
0.0
 11
95.489283717369631
 21
-29.999999999999989
 31
0.0
  0
LINE
  5
197
  8
DATA
  6
CONTINUOUS
 62
     7
 10
110.9892837173699
 20
112.0
 30
0.0
 11
109.9892837173698
 21
112.0
 31
0.0
  0
POLYLINE
  5
198
  8
DATA
  6
CONTINUOUS
 62
     7
 66
     1
 10
0.0
 20
0.0
 30
0.0
 70
     1
  0
VERTEX
  5
39E
  8
DATA
  6
CONTINUOUS
 62
     7
 10
-86.499999999999986
 20
-1.3545067279030569
 30
0.0
  0
VERTEX
  5
39F
  8
DATA
  6
CONTINUOUS
 62
     7
 10
-73.499999999999986
 20
-1.3545067279030569
 30
0.0
  0
VERTEX
  5
3A0
  8
DATA
  6
CONTINUOUS
 62
     7
 10
-73.499999999999986
 20
-7.3545067279030567
 30
0.0
  0
VERTEX
  5
3A1
  8
DATA
  6
CONTINUOUS
 62
     7
 10
-86.499999999999986
 20
-7.3545067279030567
 30
0.0
  0
SEQEND
  5
3A2
  8
DATA
  6
CONTINUOUS
 62
     7
  0
LINE
  5
19F
  8
DATA
  6
CONTINUOUS
 62
     7
 10
-22.000000000000011
 20
74.972681283367123
 30
0.0
 11
-11.000000000000011
 21
74.972681283367123
 31
0.0
  0
LINE
  5
1A0
  8
DATA
  6
CONTINUOUS
 62
     7
 10
-22.000000000000011
 20
62.972681283367137
 30
0.0
 11
-11.000000000000011
 21
62.972681283367137
 31
0.0
  0
LINE
  5
1A1
  8
DATA
  6
CONTINUOUS
 62
     7
 10
-16.000000000000021
 20
62.972681283367137
 30
0.0
 11
-16.000000000000021
 21
74.972681283367123
 31
0.0
  0
LINE
  5
1A2
  8
DATA
  6
CONTINUOUS
 62
     7
 10
-17.000000000000021
 20
62.972681283367137
 30
0.0
 11
-17.000000000000021
 21
74.972681283367123
 31
0.0
  0
LINE
  5
1A3
  8
DATA
  6
CONTINUOUS
 62
     7
 10
3.817174153777557
 20
-11.85450672790305
 30
0.0
 11
-1.459561591703334
 21
3.145493272096942
 31
0.0
  0
LINE
  5
1A4
  8
DATA
  6
CONTINUOUS
 62
     7
 10
-1.459561591703334
 20
3.145493272096942
 30
0.0
 11
0.8099976727281728
 21
3.8670266806817
 31
0.0
  0
LINE
  5
1A5
  8
DATA
  6
CONTINUOUS
 62
     7
 10
3.817174153777557
 20
-11.85450672790305
 30
0.0
 11
6.0007494493222557
 21
-11.025217716601629
 31
0.0
  0
LINE
  5
1A6
  8
DATA
  6
CONTINUOUS
 62
     7
 10
1.7341534301332751
 20
-7.3545067279030567
 30
0.0
 11
-0.3765408680590809
 21
-1.3545067279030569
 31
0.0
  0
LINE
  5
1A7
  8
DATA
  6
CONTINUOUS
 62
     7
 10
-0.3765408680590809
 20
-1.3545067279030569
 30
0.0
 11
0.0683976182784392
 21
-1.19798520687657
 31
0.0
  0
LINE
  5
1A8
  8
DATA
  6
CONTINUOUS
 62
     7
 10
1.7341534301332751
 20
-7.3545067279030567
 30
0.0
 11
2.1790919164707949
 21
-7.1979852068765666
 31
0.0
  0
LINE
  5
1A9
  8
DATA
  6
CONTINUOUS
 62
     7
 10
-85.999999999999986
 20
149.0
 30
0.0
 11
-85.999999999999986
 21
160.0
 31
0.0
  0
LINE
  5
1AA
  8
DATA
  6
CONTINUOUS
 62
     7
 10
-73.999999999999986
 20
149.0
 30
0.0
 11
-73.999999999999986
 21
160.0
 31
0.0
  0
LINE
  5
1AB
  8
DATA
  6
CONTINUOUS
 62
     7
 10
-85.999999999999986
 20
149.0
 30
0.0
 11
-73.999999999999986
 21
149.0
 31
0.0
  0
LINE
  5
1AC
  8
DATA
  6
CONTINUOUS
 62
     7
 10
-85.999999999999986
 20
155.0
 30
0.0
 11
-73.999999999999986
 21
155.0
 31
0.0
  0
LINE
  5
1AD
  8
DATA
  6
CONTINUOUS
 62
     7
 10
-85.999999999999986
 20
154.0
 30
0.0
 11
-73.999999999999986
 21
154.0
 31
0.0
  0
LINE
  5
1AE
  8
DATA
  6
CONTINUOUS
 62
     7
 10
-85.999999999999986
 20
-67.999999999966661
 30
0.0
 11
-85.999999999999986
 21
-78.999999999966647
 31
0.0
  0
LINE
  5
1AF
  8
DATA
  6
CONTINUOUS
 62
     7
 10
-73.999999999999986
 20
-67.999999999966661
 30
0.0
 11
-73.999999999999986
 21
-78.999999999966647
 31
0.0
  0
LINE
  5
1B0
  8
DATA
  6
CONTINUOUS
 62
     7
 10
-94.499999999999943
 20
-78.999999999966647
 30
0.0
 11
-65.5
 21
-78.999999999966619
 31
0.0
  0
LINE
  5
1B1
  8
DATA
  6
CONTINUOUS
 62
     7
 10
-85.999999999999957
 20
-67.999999999966633
 30
0.0
 11
-73.999999999999986
 21
-67.999999999966633
 31
0.0
  0
LINE
  5
1B2
  8
DATA
  6
CONTINUOUS
 62
     7
 10
-85.999999999999986
 20
-73.999999999966647
 30
0.0
 11
-73.999999999999986
 21
-73.999999999966647
 31
0.0
  0
LINE
  5
1B3
  8
DATA
  6
CONTINUOUS
 62
     7
 10
-85.999999999999986
 20
-72.999999999966633
 30
0.0
 11
-73.999999999999986
 21
-72.999999999966633
 31
0.0
  0
LINE
  5
1B4
  8
DATA
  6
CONTINUOUS
 62
     7
 10
69.999999796411061
 20
-15.49999999999994
 30
0.0
 11
69.999999796411061
 21
95.500000000000043
 31
0.0
  0
LINE
  5
1B5
  8
DATA
  6
CONTINUOUS
 62
     7
 10
149.999999796411
 20
-15.49999999999994
 30
0.0
 11
149.999999796411
 21
95.500000000000043
 31
0.0
  0
LINE
  5
1B6
  8
DATA
  6
CONTINUOUS
 62
     7
 10
78.999999796411061
 20
109.0
 30
0.0
 11
87.499999796411061
 21
109.0
 31
0.0
  0
LINE
  5
1B7
  8
DATA
  6
CONTINUOUS
 62
     7
 10
132.499999796411
 20
109.0
 30
0.0
 11
140.999999796411
 21
109.0
 31
0.0
  0
LINE
  5
1B8
  8
DATA
  6
CONTINUOUS
 62
     7
 10
73.499999796411061
 20
99.000000000000057
 30
0.0
 11
146.499999796411
 21
99.000000000000057
 31
0.0
  0
LINE
  5
1B9
  8
DATA
  6
CONTINUOUS
 62
     7
 10
73.499999796411061
 20
-18.99999999999995
 30
0.0
 11
146.499999796411
 21
-18.99999999999995
 31
0.0
  0
CIRCLE
  5
1BA
  8
DATA
  6
CONTINUOUS
 62
     7
 10
80.499999796411046
 20
92.0
 30
0.0
 40
4.0
  0
CIRCLE
  5
1BB
  8
DATA
  6
CONTINUOUS
 62
     7
 10
80.499999796411046
 20
-10.000000000000011
 30
0.0
 40
4.0
  0
CIRCLE
  5
1BC
  8
DATA
  6
CONTINUOUS
 62
     7
 10
139.499999796411
 20
-10.000000000000011
 30
0.0
 40
4.0
  0
CIRCLE
  5
1BD
  8
DATA
  6
CONTINUOUS
 62
     7
 10
139.499999796411
 20
92.0
 30
0.0
 40
4.0
  0
LINE
  5
1BE
  8
DATA
  6
CONTINUOUS
 62
     7
 10
65.08753967902112
 20
-2.9999999999993459
 30
0.0
 11
68.999999796411061
 21
-2.9999999999993459
 31
0.0
  0
LINE
  5
1BF
  8
DATA
  6
CONTINUOUS
 62
     7
 10
150.999999796411
 20
-2.9999999999993459
 30
0.0
 11
154.8910277557184
 21
-2.9999999999993459
 31
0.0
  0
ARC
  5
1C0
  8
DATA
  6
CONTINUOUS
 62
     7
 10
73.499999796411061
 20
95.500000000000043
 30
0.0
 40
3.5
 50
90.0
 51
180.0
  0
ARC
  5
1C1
  8
DATA
  6
CONTINUOUS
 62
     7
 10
146.499999796411
 20
95.500000000000043
 30
0.0
 40
3.5
 50
0.0
 51
90.0
  0
ARC
  5
1C2
  8
DATA
  6
CONTINUOUS
 62
     7
 10
73.499999796411061
 20
-15.49999999999994
 30
0.0
 40
3.5
 50
180.0
 51
270.0
  0
ARC
  5
1C3
  8
DATA
  6
CONTINUOUS
 62
     7
 10
146.499999796411
 20
-15.49999999999994
 30
0.0
 40
3.5
 50
270.0
 51
0.0
  0
LINE
  5
1C4
  8
DATA
  6
CONTINUOUS
 62
     7
 10
68.999999796411061
 20
-2.9999999999993392
 30
0.0
 11
68.999999796411061
 21
99.000000000000057
 31
0.0
  0
LINE
  5
1C5
  8
DATA
  6
CONTINUOUS
 62
     7
 10
150.999999796411
 20
99.000000000000057
 30
0.0
 11
150.999999796411
 21
-2.9999999999993459
 31
0.0
  0
ARC
  5
1C6
  8
DATA
  6
CONTINUOUS
 62
     7
 10
78.999999796411061
 20
99.000000000000057
 30
0.0
 40
10.0
 50
90.0
 51
180.0
  0
ARC
  5
1C7
  8
DATA
  6
CONTINUOUS
 62
     7
 10
140.999999796411
 20
99.000000000000057
 30
0.0
 40
10.0
 50
0.0
 51
90.0
  0
ARC
  5
1C8
  8
DATA
  6
CONTINUOUS
 62
     7
 10
96.77400800597313
 20
99.762874867602136
 30
0.0
 40
13.08937389574468
 50
115.1141605876537
 51
135.11416058765371
  0
ARC
  5
1C9
  8
DATA
  6
CONTINUOUS
 62
     7
 10
123.2045594287664
 20
99.762874867602136
 30
0.0
 40
13.08937389574467
 50
44.885839412346328
 51
64.885839412346385
  0
LINE
  5
1CA
  8
DATA
  6
CONTINUOUS
 62
     7
 10
95.499999796411046
 20
101.17219643120529
 30
0.0
 11
95.499999796411046
 21
107.17219643120529
 31
0.0
  0
LINE
  5
1CB
  8
DATA
  6
CONTINUOUS
 62
     7
 10
124.499999796411
 20
101.17219643120529
 30
0.0
 11
95.499999796411046
 21
101.17219643120529
 31
0.0
  0
LINE
  5
1CC
  8
DATA
  6
CONTINUOUS
 62
     7
 10
124.499999796411
 20
107.17219643120529
 30
0.0
 11
124.499999796411
 21
101.17219643120529
 31
0.0
  0
LINE
  5
1CD
  8
DATA
  6
CONTINUOUS
 62
     7
 10
95.499999796411046
 20
107.17219643120529
 30
0.0
 11
124.499999796411
 21
107.17219643120529
 31
0.0
  0
POLYLINE
  5
1CE
  8
DATA
  6
CONTINUOUS
 62
     7
 66
     1
 10
0.0
 20
0.0
 30
0.0
  0
VERTEX
  5
3A3
  8
DATA
  6
CONTINUOUS
 62
     7
 10
121.0892837173699
 20
111.86534664348341
 30
0.0
  0
VERTEX
  5
3A4
  8
DATA
  6
CONTINUOUS
 62
     7
 10
121.0892837173699
 20
111.71098864669371
 30
0.0
  0
VERTEX
  5
3A5
  8
DATA
  6
CONTINUOUS
 62
     7
 10
98.889283717369935
 20
111.71098864669371
 30
0.0
  0
VERTEX
  5
3A6
  8
DATA
  6
CONTINUOUS
 62
     7
 10
98.889283717369935
 20
111.86534664348341
 30
0.0
  0
SEQEND
  5
3A7
  8
DATA
  6
CONTINUOUS
 62
     7
  0
LINE
  5
1D5
  8
DATA
  6
CONTINUOUS
 62
     7
 10
81.499999796411075
 20
-24.22545626368537
 30
0.0
 11
81.499999796411075
 21
-21.92545626368539
 31
0.0
  0
LINE
  5
1D6
  8
DATA
  6
CONTINUOUS
 62
     7
 10
138.499999796411
 20
-21.92545626368539
 30
0.0
 11
138.499999796411
 21
-24.22545626368537
 31
0.0
  0
LINE
  5
1D7
  8
DATA
  6
CONTINUOUS
 62
     7
 10
81.499999796411075
 20
-21.92545626368539
 30
0.0
 11
138.499999796411
 21
-21.92545626368539
 31
0.0
  0
ARC
  5
1D8
  8
DATA
  6
CONTINUOUS
 62
     7
 10
109.999999796411
 20
93.523073148079135
 30
0.0
 40
121.1485294117645
 50
256.3937333329938
 51
283.60626666700608
  0
CIRCLE
  5
1D9
  8
DATA
  6
CONTINUOUS
 62
     7
 10
109.999999796411
 20
48.000000000000057
 30
0.0
 40
5.0
  0
POLYLINE
  5
1DA
  8
DATA
  6
CONTINUOUS
 62
     7
 66
     1
 10
0.0
 20
0.0
 30
0.0
 70
     1
  0
VERTEX
  5
3A8
  8
DATA
  6
CONTINUOUS
 62
     7
 10
106.749999796411
 20
51.250000000000071
 30
0.0
  0
VERTEX
  5
3A9
  8
DATA
  6
CONTINUOUS
 62
     7
 10
113.249999796411
 20
51.250000000000071
 30
0.0
  0
VERTEX
  5
3AA
  8
DATA
  6
CONTINUOUS
 62
     7
 10
113.249999796411
 20
44.750000000000057
 30
0.0
  0
VERTEX
  5
3AB
  8
DATA
  6
CONTINUOUS
 62
     7
 10
106.749999796411
 20
44.750000000000057
 30
0.0
  0
SEQEND
  5
3AC
  8
DATA
  6
CONTINUOUS
 62
     7
  0
CIRCLE
  5
1E1
  8
DATA
  6
CONTINUOUS
 62
     7
 10
109.999999796411
 20
48.000000000000057
 30
0.0
 40
1.462194702544223
  0
LINE
  5
1E2
  8
DATA
  6
CONTINUOUS
 62
     7
 10
89.499999796411046
 20
40.053240274511943
 30
0.0
 11
130.499999796411
 21
40.053240274511943
 31
0.0
  0
LINE
  5
1E3
  8
DATA
  6
CONTINUOUS
 62
     7
 10
89.499999796411061
 20
-9.0467597254880552
 30
0.0
 11
89.499999796411061
 21
40.053240274511943
 31
0.0
  0
LINE
  5
1E4
  8
DATA
  6
CONTINUOUS
 62
     7
 10
130.499999796411
 20
-9.0467597254880552
 30
0.0
 11
130.499999796411
 21
40.053240274511943
 31
0.0
  0
LINE
  5
1E5
  8
DATA
  6
CONTINUOUS
 62
     7
 10
89.499999796411046
 20
37.053240274511943
 30
0.0
 11
130.499999796411
 21
37.053240274511943
 31
0.0
  0
LINE
  5
1E6
  8
DATA
  6
CONTINUOUS
 62
     7
 10
89.499999796411046
 20
34.753240274511931
 30
0.0
 11
130.499999796411
 21
34.753240274511931
 31
0.0
  0
LINE
  5
1E7
  8
DATA
  6
CONTINUOUS
 62
     7
 10
89.499999796411046
 20
32.453240274511941
 30
0.0
 11
130.499999796411
 21
32.453240274511941
 31
0.0
  0
LINE
  5
1E8
  8
DATA
  6
CONTINUOUS
 62
     7
 10
89.499999796411046
 20
30.15324027451193
 30
0.0
 11
130.499999796411
 21
30.15324027451193
 31
0.0
  0
LINE
  5
1E9
  8
DATA
  6
CONTINUOUS
 62
     7
 10
89.499999796411046
 20
27.85324027451194
 30
0.0
 11
130.499999796411
 21
27.85324027451194
 31
0.0
  0
LINE
  5
1EA
  8
DATA
  6
CONTINUOUS
 62
     7
 10
89.499999796411046
 20
25.553240274511928
 30
0.0
 11
130.499999796411
 21
25.553240274511928
 31
0.0
  0
LINE
  5
1EB
  8
DATA
  6
CONTINUOUS
 62
     7
 10
89.499999796411046
 20
23.253240274511931
 30
0.0
 11
130.499999796411
 21
23.253240274511931
 31
0.0
  0
LINE
  5
1EC
  8
DATA
  6
CONTINUOUS
 62
     7
 10
89.499999796411046
 20
20.953240274511931
 30
0.0
 11
130.499999796411
 21
20.953240274511931
 31
0.0
  0
LINE
  5
1ED
  8
DATA
  6
CONTINUOUS
 62
     7
 10
89.499999796411046
 20
18.65324027451193
 30
0.0
 11
130.499999796411
 21
18.65324027451193
 31
0.0
  0
LINE
  5
1EE
  8
DATA
  6
CONTINUOUS
 62
     7
 10
89.499999796411046
 20
16.353240274511929
 30
0.0
 11
130.499999796411
 21
16.353240274511929
 31
0.0
  0
LINE
  5
1EF
  8
DATA
  6
CONTINUOUS
 62
     7
 10
89.499999796411046
 20
14.05324027451193
 30
0.0
 11
130.499999796411
 21
14.05324027451193
 31
0.0
  0
LINE
  5
1F0
  8
DATA
  6
CONTINUOUS
 62
     7
 10
89.499999796411046
 20
11.75324027451193
 30
0.0
 11
130.499999796411
 21
11.75324027451193
 31
0.0
  0
LINE
  5
1F1
  8
DATA
  6
CONTINUOUS
 62
     7
 10
89.499999796411046
 20
9.4532402745119342
 30
0.0
 11
130.499999796411
 21
9.4532402745119342
 31
0.0
  0
LINE
  5
1F2
  8
DATA
  6
CONTINUOUS
 62
     7
 10
89.499999796411046
 20
7.153240274511929
 30
0.0
 11
130.499999796411
 21
7.153240274511929
 31
0.0
  0
LINE
  5
1F3
  8
DATA
  6
CONTINUOUS
 62
     7
 10
89.499999796411046
 20
4.8532402745119319
 30
0.0
 11
130.499999796411
 21
4.8532402745119319
 31
0.0
  0
LINE
  5
1F4
  8
DATA
  6
CONTINUOUS
 62
     7
 10
89.499999796411046
 20
2.553240274511936
 30
0.0
 11
130.499999796411
 21
2.553240274511936
 31
0.0
  0
LINE
  5
1F5
  8
DATA
  6
CONTINUOUS
 62
     7
 10
89.499999796411046
 20
0.2532402745119384
 30
0.0
 11
130.499999796411
 21
0.2532402745119384
 31
0.0
  0
LINE
  5
1F6
  8
DATA
  6
CONTINUOUS
 62
     7
 10
89.499999796411046
 20
-2.0467597254880578
 30
0.0
 11
130.499999796411
 21
-2.0467597254880578
 31
0.0
  0
LINE
  5
1F7
  8
DATA
  6
CONTINUOUS
 62
     7
 10
98.499999796411046
 20
37.053240274511943
 30
0.0
 11
98.499999796411046
 21
-2.0467597254880521
 31
0.0
  0
LINE
  5
1F8
  8
DATA
  6
CONTINUOUS
 62
     7
 10
107.499999796411
 20
37.053240274511943
 30
0.0
 11
107.499999796411
 21
-2.0467597254880521
 31
0.0
  0
LINE
  5
1F9
  8
DATA
  6
CONTINUOUS
 62
     7
 10
116.499999796411
 20
37.053240274511943
 30
0.0
 11
116.499999796411
 21
-2.0467597254880521
 31
0.0
  0
TEXT
  5
1FA
  8
DATA
 62
     7
 10
93.263842702382405
 20
37.51938603931881
 30
0.0
 40
1.954609375
  1
disconnect before setting
 41
0.7
 11
93.263842702382405
 21
38.496690726818812
 31
0.0
 73
     2
  0
TEXT
  5
1FB
  8
DATA
 62
     7
 10
92.018162903027843
 20
35.246312586418753
 30
0.0
 40
1.954609375
  1
pos
 41
0.7
 11
92.018162903027843
 21
36.223617273918762
 31
0.0
 73
     2
  0
TEXT
  5
1FC
  8
DATA
 62
     7
 10
93.478723024749186
 20
32.728133377584939
 30
0.0
 40
1.6288411458333329
  1
0
 41
0.7
 11
93.478723024749186
 21
33.542553950501613
 31
0.0
 73
     2
  0
TEXT
  5
1FD
  8
DATA
 62
     7
 10
93.478723024749186
 20
30.428133377584938
 30
0.0
 40
1.6288411458333329
  1
1
 41
0.7
 11
93.478723024749186
 21
31.242553950501609
 31
0.0
 73
     2
  0
TEXT
  5
1FE
  8
DATA
 62
     7
 10
93.478723024749186
 20
28.128133377584941
 30
0.0
 40
1.6288411458333329
  1
2
 41
0.7
 11
93.478723024749186
 21
28.942553950501608
 31
0.0
 73
     2
  0
TEXT
  5
1FF
  8
DATA
 62
     7
 10
93.478723024749186
 20
25.82813337758494
 30
0.0
 40
1.6288411458333329
  1
3
 41
0.7
 11
93.478723024749186
 21
26.642553950501611
 31
0.0
 73
     2
  0
TEXT
  5
200
  8
DATA
 62
     7
 10
93.478723024749186
 20
23.52813337758494
 30
0.0
 40
1.6288411458333329
  1
4
 41
0.7
 11
93.478723024749186
 21
24.34255395050161
 31
0.0
 73
     2
  0
TEXT
  5
201
  8
DATA
 62
     7
 10
93.478723024749186
 20
21.22813337758495
 30
0.0
 40
1.6288411458333329
  1
5
 41
0.7
 11
93.478723024749186
 21
22.04255395050161
 31
0.0
 73
     2
  0
TEXT
  5
202
  8
DATA
 62
     7
 10
93.478723024749186
 20
18.928133377584938
 30
0.0
 40
1.6288411458333329
  1
6
 41
0.7
 11
93.478723024749186
 21
19.742553950501609
 31
0.0
 73
     2
  0
TEXT
  5
203
  8
DATA
 62
     7
 10
93.478723024749186
 20
16.628133377584948
 30
0.0
 40
1.6288411458333329
  1
7
 41
0.7
 11
93.478723024749186
 21
17.442553950501608
 31
0.0
 73
     2
  0
TEXT
  5
204
  8
DATA
 62
     7
 10
93.478723024749186
 20
14.32813337758494
 30
0.0
 40
1.6288411458333329
  1
8
 41
0.7
 11
93.478723024749186
 21
15.142553950501609
 31
0.0
 73
     2
  0
TEXT
  5
205
  8
DATA
 62
     7
 10
93.478723024749186
 20
12.02813337758494
 30
0.0
 40
1.6288411458333329
  1
9
 41
0.7
 11
93.478723024749186
 21
12.84255395050161
 31
0.0
 73
     2
  0
TEXT
  5
206
  8
DATA
 62
     7
 10
93.478723024749186
 20
9.7281333775849426
 30
0.0
 40
1.6288411458333329
  1
A
 41
0.7
 11
93.478723024749186
 21
10.54255395050161
 31
0.0
 73
     2
  0
TEXT
  5
207
  8
DATA
 62
     7
 10
93.478723024749186
 20
7.4281333775849419
 30
0.0
 40
1.6288411458333329
  1
B
 41
0.7
 11
93.478723024749186
 21
8.2425539505016072
 31
0.0
 73
     2
  0
TEXT
  5
208
  8
DATA
 62
     7
 10
93.478723024749186
 20
5.128133377584942
 30
0.0
 40
1.6288411458333329
  1
C
 41
0.7
 11
93.478723024749186
 21
5.9425539505016083
 31
0.0
 73
     2
  0
TEXT
  5
209
  8
DATA
 62
     7
 10
93.478723024749186
 20
2.8281333775849409
 30
0.0
 40
1.6288411458333329
  1
D
 41
0.7
 11
93.478723024749186
 21
3.642553950501608
 31
0.0
 73
     2
  0
TEXT
  5
20A
  8
DATA
 62
     7
 10
93.478723024749186
 20
0.5281333775849438
 30
0.0
 40
1.6288411458333329
  1
E
 41
0.7
 11
93.478723024749186
 21
1.34255395050161
 31
0.0
 73
     2
  0
TEXT
  5
20B
  8
DATA
 62
     7
 10
93.478723024749186
 20
-1.771866622415053
 30
0.0
 40
1.6288411458333329
  1
F
 41
0.7
 11
93.478723024749186
 21
-0.9574460494983869
 31
0.0
 73
     2
  0
TEXT
  5
20C
  8
DATA
 62
     7
 10
101.414045688613
 20
35.080365946711161
 30
0.0
 40
1.563687499999999
  1
LED
 41
0.7
 11
101.414045688613
 21
35.862209696711162
 31
0.0
 73
     2
  0
TEXT
  5
20D
  8
DATA
 62
     7
 10
101.3630422670352
 20
32.728133377584939
 30
0.0
 40
1.6288411458333329
  1
off
 41
0.7
 11
101.3630422670352
 21
33.542553950501613
 31
0.0
 73
     2
  0
TEXT
  5
20E
  8
DATA
 62
     7
 10
101.8732302782312
 20
14.47155722923768
 30
0.0
 40
1.6288411458333329
  1
on
 41
0.7
 11
101.8732302782312
 21
15.28597780215434
 31
0.0
 73
     2
  0
TEXT
  5
20F
  8
DATA
 62
     7
 10
101.3630422670352
 20
30.428133377584938
 30
0.0
 40
1.6288411458333329
  1
off
 41
0.7
 11
101.3630422670352
 21
31.242553950501609
 31
0.0
 73
     2
  0
TEXT
  5
210
  8
DATA
 62
     7
 10
101.3630422670352
 20
28.128133377584941
 30
0.0
 40
1.6288411458333329
  1
off
 41
0.7
 11
101.3630422670352
 21
28.942553950501608
 31
0.0
 73
     2
  0
TEXT
  5
211
  8
DATA
 62
     7
 10
101.3630422670352
 20
25.82813337758494
 30
0.0
 40
1.6288411458333329
  1
off
 41
0.7
 11
101.3630422670352
 21
26.642553950501611
 31
0.0
 73
     2
  0
TEXT
  5
212
  8
DATA
 62
     7
 10
101.3630422670352
 20
23.52813337758494
 30
0.0
 40
1.6288411458333329
  1
off
 41
0.7
 11
101.3630422670352
 21
24.34255395050161
 31
0.0
 73
     2
  0
TEXT
  5
213
  8
DATA
 62
     7
 10
101.3630422670352
 20
21.22813337758495
 30
0.0
 40
1.6288411458333329
  1
off
 41
0.7
 11
101.3630422670352
 21
22.04255395050161
 31
0.0
 73
     2
  0
TEXT
  5
214
  8
DATA
 62
     7
 10
101.3630422670352
 20
18.928133377584938
 30
0.0
 40
1.6288411458333329
  1
off
 41
0.7
 11
101.3630422670352
 21
19.742553950501609
 31
0.0
 73
     2
  0
TEXT
  5
215
  8
DATA
 62
     7
 10
101.3630422670352
 20
16.628133377584948
 30
0.0
 40
1.6288411458333329
  1
off
 41
0.7
 11
101.3630422670352
 21
17.442553950501608
 31
0.0
 73
     2
  0
TEXT
  5
216
  8
DATA
 62
     7
 10
101.8732302782312
 20
12.171557229237679
 30
0.0
 40
1.6288411458333329
  1
on
 41
0.7
 11
101.8732302782312
 21
12.985977802154339
 31
0.0
 73
     2
  0
TEXT
  5
217
  8
DATA
 62
     7
 10
101.8732302782312
 20
9.8715572292376805
 30
0.0
 40
1.6288411458333329
  1
on
 41
0.7
 11
101.8732302782312
 21
10.685977802154341
 31
0.0
 73
     2
  0
TEXT
  5
218
  8
DATA
 62
     7
 10
101.8732302782312
 20
7.5715572292376816
 30
0.0
 40
1.6288411458333329
  1
on
 41
0.7
 11
101.8732302782312
 21
8.3859778021543487
 31
0.0
 73
     2
  0
TEXT
  5
219
  8
DATA
 62
     7
 10
101.8732302782312
 20
5.2715572292376791
 30
0.0
 40
1.6288411458333329
  1
on
 41
0.7
 11
101.8732302782312
 21
6.0859778021543454
 31
0.0
 73
     2
  0
TEXT
  5
21A
  8
DATA
 62
     7
 10
101.8732302782312
 20
2.971557229237678
 30
0.0
 40
1.6288411458333329
  1
on
 41
0.7
 11
101.8732302782312
 21
3.7859778021543451
 31
0.0
 73
     2
  0
TEXT
  5
21B
  8
DATA
 62
     7
 10
101.8732302782312
 20
0.6715572292376784
 30
0.0
 40
1.6288411458333329
  1
on
 41
0.7
 11
101.8732302782312
 21
1.4859778021543439
 31
0.0
 73
     2
  0
TEXT
  5
21C
  8
DATA
 62
     7
 10
101.8732302782312
 20
-1.6284427707623219
 30
0.0
 40
1.6288411458333329
  1
on
 41
0.7
 11
101.8732302782312
 21
-0.8140221978456558
 31
0.0
 73
     2
  0
TEXT
  5
21D
  8
DATA
 62
     7
 10
108.3106840372122
 20
35.016677617555111
 30
0.0
 40
1.563687499999999
  1
BASSCUT
 41
0.7
 11
108.3106840372122
 21
35.798521367555111
 31
0.0
 73
     2
  0
TEXT
  5
21E
  8
DATA
 62
     7
 10
110.3630422670352
 20
32.728133377584939
 30
0.0
 40
1.6288411458333329
  1
off
 41
0.7
 11
110.3630422670352
 21
33.542553950501613
 31
0.0
 73
     2
  0
TEXT
  5
21F
  8
DATA
 62
     7
 10
110.3630422670352
 20
30.428133377584938
 30
0.0
 40
1.6288411458333329
  1
off
 41
0.7
 11
110.3630422670352
 21
31.242553950501609
 31
0.0
 73
     2
  0
TEXT
  5
220
  8
DATA
 62
     7
 10
110.3630422670352
 20
28.128133377584941
 30
0.0
 40
1.6288411458333329
  1
off
 41
0.7
 11
110.3630422670352
 21
28.942553950501608
 31
0.0
 73
     2
  0
TEXT
  5
221
  8
DATA
 62
     7
 10
110.3630422670352
 20
25.82813337758494
 30
0.0
 40
1.6288411458333329
  1
off
 41
0.7
 11
110.3630422670352
 21
26.642553950501611
 31
0.0
 73
     2
  0
TEXT
  5
222
  8
DATA
 62
     7
 10
110.3630422670352
 20
14.328133377584949
 30
0.0
 40
1.6288411458333329
  1
off
 41
0.7
 11
110.3630422670352
 21
15.14255395050162
 31
0.0
 73
     2
  0
TEXT
  5
223
  8
DATA
 62
     7
 10
110.3630422670352
 20
12.02813337758495
 30
0.0
 40
1.6288411458333329
  1
off
 41
0.7
 11
110.3630422670352
 21
12.84255395050161
 31
0.0
 73
     2
  0
TEXT
  5
224
  8
DATA
 62
     7
 10
110.3630422670352
 20
9.7281333775849461
 30
0.0
 40
1.6288411458333329
  1
off
 41
0.7
 11
110.3630422670352
 21
10.54255395050161
 31
0.0
 73
     2
  0
TEXT
  5
225
  8
DATA
 62
     7
 10
110.3630422670352
 20
7.428133377584949
 30
0.0
 40
1.6288411458333329
  1
off
 41
0.7
 11
110.3630422670352
 21
8.2425539505016161
 31
0.0
 73
     2
  0
TEXT
  5
226
  8
DATA
 62
     7
 10
110.93633230582191
 20
23.777073775770781
 30
0.0
 40
1.6288411458333329
  1
on
 41
0.7
 11
110.93633230582191
 21
24.591494348687451
 31
0.0
 73
     2
  0
TEXT
  5
227
  8
DATA
 62
     7
 10
110.93633230582191
 20
21.47707377577078
 30
0.0
 40
1.6288411458333329
  1
on
 41
0.7
 11
110.93633230582191
 21
22.291494348687451
 31
0.0
 73
     2
  0
TEXT
  5
228
  8
DATA
 62
     7
 10
110.93633230582191
 20
19.177073775770779
 30
0.0
 40
1.6288411458333329
  1
on
 41
0.7
 11
110.93633230582191
 21
19.99149434868745
 31
0.0
 73
     2
  0
TEXT
  5
229
  8
DATA
 62
     7
 10
110.93633230582191
 20
16.877073775770778
 30
0.0
 40
1.6288411458333329
  1
on
 41
0.7
 11
110.93633230582191
 21
17.691494348687449
 31
0.0
 73
     2
  0
TEXT
  5
22A
  8
DATA
 62
     7
 10
110.8732302782313
 20
5.2715572292376791
 30
0.0
 40
1.6288411458333329
  1
on
 41
0.7
 11
110.8732302782313
 21
6.0859778021543454
 31
0.0
 73
     2
  0
TEXT
  5
22B
  8
DATA
 62
     7
 10
110.8732302782313
 20
2.971557229237678
 30
0.0
 40
1.6288411458333329
  1
on
 41
0.7
 11
110.8732302782313
 21
3.7859778021543451
 31
0.0
 73
     2
  0
TEXT
  5
22C
  8
DATA
 62
     7
 10
110.8732302782313
 20
0.6715572292376784
 30
0.0
 40
1.6288411458333329
  1
on
 41
0.7
 11
110.8732302782313
 21
1.4859778021543439
 31
0.0
 73
     2
  0
TEXT
  5
22D
  8
DATA
 62
     7
 10
110.8732302782313
 20
-1.6284427707623219
 30
0.0
 40
1.6288411458333329
  1
on
 41
0.7
 11
110.8732302782313
 21
-0.8140221978456558
 31
0.0
 73
     2
  0
LINE
  5
22E
  8
DATA
  6
CONTINUOUS
 62
     7
 10
108.9660720769925
 20
46.966072140250581
 30
0.0
 11
111.0339275158297
 21
49.033927859749582
 31
0.0
  0
TEXT
  5
22F
  8
DATA
 62
     7
 10
120.3163941421122
 20
35.016677617555111
 30
0.0
 40
1.563687499999999
  1
SWITCH
 41
0.7
 11
120.3163941421122
 21
35.798521367555111
 31
0.0
 73
     2
  0
TEXT
  5
230
  8
DATA
 62
     7
 10
120.3163941421122
 20
32.748465932102377
 30
0.0
 40
1.563687499999999
  1
on/off
 41
0.7
 11
120.3163941421122
 21
33.530309682102377
 31
0.0
 73
     2
  0
TEXT
  5
231
  8
DATA
 62
     7
 10
117.15745256937591
 20
30.54383087574417
 30
0.0
 40
1.563687499999999
  1
push to talk
 41
0.7
 11
117.15745256937591
 21
31.32567462574417
 31
0.0
 73
     2
  0
TEXT
  5
232
  8
DATA
 62
     7
 10
117.1892408839232
 20
28.212042561196899
 30
0.0
 40
1.563687499999999
  1
push to mute
 41
0.7
 11
117.1892408839232
 21
28.993886311196899
 31
0.0
 73
     2
  0
TEXT
  5
233
  8
DATA
 62
     7
 10
122.9985109966396
 20
25.912042561196909
 30
0.0
 40
1.563687499999999
  1
-
 41
0.7
 11
122.9985109966396
 21
26.693886311196909
 31
0.0
 73
     2
  0
TEXT
  5
234
  8
DATA
 62
     7
 10
120.3163941421122
 20
23.612042561196908
 30
0.0
 40
1.563687499999999
  1
on/off
 41
0.7
 11
120.3163941421122
 21
24.393886311196908
 31
0.0
 73
     2
  0
TEXT
  5
235
  8
DATA
 62
     7
 10
117.15745256937591
 20
21.343830875744171
 30
0.0
 40
1.563687499999999
  1
push to talk
 41
0.7
 11
117.15745256937591
 21
22.125674625744171
 31
0.0
 73
     2
  0
TEXT
  5
236
  8
DATA
 62
     7
 10
117.1892408839232
 20
19.0120425611969
 30
0.0
 40
1.563687499999999
  1
push to mute
 41
0.7
 11
117.1892408839232
 21
19.793886311196911
 31
0.0
 73
     2
  0
TEXT
  5
237
  8
DATA
 62
     7
 10
122.9985109966396
 20
16.712042561196899
 30
0.0
 40
1.563687499999999
  1
-
 41
0.7
 11
122.9985109966396
 21
17.493886311196899
 31
0.0
 73
     2
  0
TEXT
  5
238
  8
DATA
 62
     7
 10
120.3163941421122
 20
14.4120425611969
 30
0.0
 40
1.563687499999999
  1
on/off
 41
0.7
 11
120.3163941421122
 21
15.1938863111969
 31
0.0
 73
     2
  0
TEXT
  5
239
  8
DATA
 62
     7
 10
117.15745256937591
 20
12.14383087574417
 30
0.0
 40
1.563687499999999
  1
push to talk
 41
0.7
 11
117.15745256937591
 21
12.92567462574417
 31
0.0
 73
     2
  0
TEXT
  5
23A
  8
DATA
 62
     7
 10
117.1892408839232
 20
9.8120425611969075
 30
0.0
 40
1.563687499999999
  1
push to mute
 41
0.7
 11
117.1892408839232
 21
10.593886311196901
 31
0.0
 73
     2
  0
TEXT
  5
23B
  8
DATA
 62
     7
 10
122.9985109966396
 20
7.5120425611969059
 30
0.0
 40
1.563687499999999
  1
-
 41
0.7
 11
122.9985109966396
 21
8.293886311196907
 31
0.0
 73
     2
  0
TEXT
  5
23C
  8
DATA
 62
     7
 10
120.3163941421122
 20
5.2120425611969052
 30
0.0
 40
1.563687499999999
  1
on/off
 41
0.7
 11
120.3163941421122
 21
5.9938863111969054
 31
0.0
 73
     2
  0
TEXT
  5
23D
  8
DATA
 62
     7
 10
117.15745256937591
 20
2.943830875744172
 30
0.0
 40
1.563687499999999
  1
push to talk
 41
0.7
 11
117.15745256937591
 21
3.7256746257441722
 31
0.0
 73
     2
  0
TEXT
  5
23E
  8
DATA
 62
     7
 10
117.1892408839232
 20
0.6120425611969085
 30
0.0
 40
1.563687499999999
  1
push to mute
 41
0.7
 11
117.1892408839232
 21
1.393886311196908
 31
0.0
 73
     2
  0
TEXT
  5
23F
  8
DATA
 62
     7
 10
122.9985109966396
 20
-1.687957438803092
 30
0.0
 40
1.563687499999999
  1
-
 41
0.7
 11
122.9985109966396
 21
-0.9061136888030924
 31
0.0
 73
     2
  0
LINE
  5
240
  8
DATA
  6
CONTINUOUS
 62
     7
 10
89.499999796411046
 20
-9.0467597254880552
 30
0.0
 11
130.499999796411
 21
-9.0467597254880552
 31
0.0
  0
TEXT
  5
241
  8
DATA
 62
     7
 10
106.9290662597822
 20
-6.2009589071542983
 30
0.0
 40
1.7374305555555549
  1
Made in Philippines
 41
0.7
 11
106.9290662597822
 21
-5.3322436293765199
 31
0.0
 73
     2
  0
LINE
  5
242
  8
DATA
  6
CONTINUOUS
 62
     7
 10
59.655397412742019
 20
-47.270673878932669
 30
0.0
 11
162.15539741273869
 21
-47.270673878932669
 31
0.0
  0
LINE
  5
243
  8
DATA
  6
CONTINUOUS
 62
     7
 10
59.655397412742019
 20
-170.0206738789326
 30
0.0
 11
59.655397412742019
 21
-47.270673878932669
 31
0.0
  0
LINE
  5
244
  8
DATA
  6
CONTINUOUS
 62
     7
 10
162.15539741273869
 20
-170.0206738789326
 30
0.0
 11
162.15539741273869
 21
-47.270673878932669
 31
0.0
  0
LINE
  5
245
  8
DATA
  6
CONTINUOUS
 62
     7
 10
59.655397412742019
 20
-54.770673878932669
 30
0.0
 11
162.15539741273869
 21
-54.770673878932669
 31
0.0
  0
LINE
  5
246
  8
DATA
  6
CONTINUOUS
 62
     7
 10
59.655397412742019
 20
-60.52067387893262
 30
0.0
 11
162.15539741273869
 21
-60.52067387893262
 31
0.0
  0
LINE
  5
247
  8
DATA
  6
CONTINUOUS
 62
     7
 10
59.655397412742019
 20
-66.27067387893257
 30
0.0
 11
162.15539741273869
 21
-66.27067387893257
 31
0.0
  0
LINE
  5
248
  8
DATA
  6
CONTINUOUS
 62
     7
 10
59.655397412742019
 20
-72.020673878932556
 30
0.0
 11
162.15539741273869
 21
-72.020673878932556
 31
0.0
  0
LINE
  5
249
  8
DATA
  6
CONTINUOUS
 62
     7
 10
59.655397412742019
 20
-77.770673878932612
 30
0.0
 11
162.15539741273869
 21
-77.770673878932612
 31
0.0
  0
LINE
  5
24A
  8
DATA
  6
CONTINUOUS
 62
     7
 10
59.655397412742019
 20
-83.520673878932627
 30
0.0
 11
162.15539741273869
 21
-83.520673878932627
 31
0.0
  0
LINE
  5
24B
  8
DATA
  6
CONTINUOUS
 62
     7
 10
59.655397412742019
 20
-89.270673878932627
 30
0.0
 11
162.15539741273869
 21
-89.270673878932627
 31
0.0
  0
LINE
  5
24C
  8
DATA
  6
CONTINUOUS
 62
     7
 10
59.655397412742019
 20
-95.02067387893257
 30
0.0
 11
162.15539741273869
 21
-95.02067387893257
 31
0.0
  0
LINE
  5
24D
  8
DATA
  6
CONTINUOUS
 62
     7
 10
59.655397412742019
 20
-100.7706738789326
 30
0.0
 11
162.15539741273869
 21
-100.7706738789326
 31
0.0
  0
LINE
  5
24E
  8
DATA
  6
CONTINUOUS
 62
     7
 10
59.655397412742019
 20
-106.5206738789326
 30
0.0
 11
162.15539741273869
 21
-106.5206738789326
 31
0.0
  0
LINE
  5
24F
  8
DATA
  6
CONTINUOUS
 62
     7
 10
59.655397412742019
 20
-112.2706738789326
 30
0.0
 11
162.15539741273869
 21
-112.2706738789326
 31
0.0
  0
LINE
  5
250
  8
DATA
  6
CONTINUOUS
 62
     7
 10
59.655397412742019
 20
-118.0206738789326
 30
0.0
 11
162.15539741273869
 21
-118.0206738789326
 31
0.0
  0
LINE
  5
251
  8
DATA
  6
CONTINUOUS
 62
     7
 10
59.655397412742019
 20
-123.7706738789325
 30
0.0
 11
162.15539741273869
 21
-123.7706738789325
 31
0.0
  0
LINE
  5
252
  8
DATA
  6
CONTINUOUS
 62
     7
 10
59.655397412742019
 20
-129.5206738789326
 30
0.0
 11
162.15539741273869
 21
-129.5206738789326
 31
0.0
  0
LINE
  5
253
  8
DATA
  6
CONTINUOUS
 62
     7
 10
59.655397412742019
 20
-135.27067387893251
 30
0.0
 11
162.15539741273869
 21
-135.27067387893251
 31
0.0
  0
LINE
  5
254
  8
DATA
  6
CONTINUOUS
 62
     7
 10
59.655397412742019
 20
-141.0206738789326
 30
0.0
 11
162.15539741273869
 21
-141.0206738789326
 31
0.0
  0
LINE
  5
255
  8
DATA
  6
CONTINUOUS
 62
     7
 10
59.655397412742019
 20
-146.7706738789326
 30
0.0
 11
162.15539741273869
 21
-146.7706738789326
 31
0.0
  0
LINE
  5
256
  8
DATA
  6
CONTINUOUS
 62
     7
 10
59.655397412742019
 20
-152.52067387893251
 30
0.0
 11
162.15539741273869
 21
-152.52067387893251
 31
0.0
  0
LINE
  5
257
  8
DATA
  6
CONTINUOUS
 62
     7
 10
82.155397412741422
 20
-54.770673878932669
 30
0.0
 11
82.155397412741422
 21
-152.52067387893251
 31
0.0
  0
LINE
  5
258
  8
DATA
  6
CONTINUOUS
 62
     7
 10
104.6553974127407
 20
-54.770673878932669
 30
0.0
 11
104.6553974127407
 21
-152.52067387893251
 31
0.0
  0
LINE
  5
259
  8
DATA
  6
CONTINUOUS
 62
     7
 10
127.1553974127399
 20
-54.770673878932669
 30
0.0
 11
127.1553974127399
 21
-152.52067387893251
 31
0.0
  0
TEXT
  5
25A
  8
DATA
 62
     7
 10
69.065004677670132
 20
-53.605309466915458
 30
0.0
 40
4.8865234375000002
  1
disconnect before setting
 41
0.7
 11
69.065004677670132
 21
-51.162047748165449
 31
0.0
 73
     2
  0
TEXT
  5
25B
  8
DATA
 62
     7
 10
65.950805179283805
 20
-59.28799309916559
 30
0.0
 40
4.8865234375000002
  1
pos
 41
0.7
 11
65.950805179283805
 21
-56.844731380415602
 31
0.0
 73
     2
  0
TEXT
  5
25C
  8
DATA
 62
     7
 10
69.602205483587099
 20
-65.583441121250061
 30
0.0
 40
4.072102864583333
  1
0
 41
0.7
 11
69.602205483587099
 21
-63.547389688958397
 31
0.0
 73
     2
  0
TEXT
  5
25D
  8
DATA
 62
     7
 10
69.602205483587099
 20
-71.333441121250061
 30
0.0
 40
4.072102864583333
  1
1
 41
0.7
 11
69.602205483587099
 21
-69.29738968895839
 31
0.0
 73
     2
  0
TEXT
  5
25E
  8
DATA
 62
     7
 10
69.602205483587099
 20
-77.083441121250061
 30
0.0
 40
4.072102864583333
  1
2
 41
0.7
 11
69.602205483587099
 21
-75.04738968895839
 31
0.0
 73
     2
  0
TEXT
  5
25F
  8
DATA
 62
     7
 10
69.602205483587099
 20
-82.833441121250104
 30
0.0
 40
4.072102864583333
  1
3
 41
0.7
 11
69.602205483587099
 21
-80.797389688958447
 31
0.0
 73
     2
  0
TEXT
  5
260
  8
DATA
 62
     7
 10
69.602205483587099
 20
-88.583441121250047
 30
0.0
 40
4.072102864583333
  1
4
 41
0.7
 11
69.602205483587099
 21
-86.547389688958376
 31
0.0
 73
     2
  0
TEXT
  5
261
  8
DATA
 62
     7
 10
69.602205483587099
 20
-94.333441121250075
 30
0.0
 40
4.072102864583333
  1
5
 41
0.7
 11
69.602205483587099
 21
-92.297389688958404
 31
0.0
 73
     2
  0
TEXT
  5
262
  8
DATA
 62
     7
 10
69.602205483587099
 20
-100.08344112125
 30
0.0
 40
4.072102864583333
  1
6
 41
0.7
 11
69.602205483587099
 21
-98.047389688958404
 31
0.0
 73
     2
  0
TEXT
  5
263
  8
DATA
 62
     7
 10
69.602205483587099
 20
-105.8334411212501
 30
0.0
 40
4.072102864583333
  1
7
 41
0.7
 11
69.602205483587099
 21
-103.7973896889584
 31
0.0
 73
     2
  0
TEXT
  5
264
  8
DATA
 62
     7
 10
69.602205483587099
 20
-111.5834411212501
 30
0.0
 40
4.072102864583333
  1
8
 41
0.7
 11
69.602205483587099
 21
-109.5473896889584
 31
0.0
 73
     2
  0
TEXT
  5
265
  8
DATA
 62
     7
 10
69.602205483587099
 20
-117.3334411212501
 30
0.0
 40
4.072102864583333
  1
9
 41
0.7
 11
69.602205483587099
 21
-115.2973896889584
 31
0.0
 73
     2
  0
TEXT
  5
266
  8
DATA
 62
     7
 10
69.602205483587099
 20
-123.08344112125
 30
0.0
 40
4.072102864583333
  1
A
 41
0.7
 11
69.602205483587099
 21
-121.0473896889584
 31
0.0
 73
     2
  0
TEXT
  5
267
  8
DATA
 62
     7
 10
69.602205483587099
 20
-128.8334411212501
 30
0.0
 40
4.072102864583333
  1
B
 41
0.7
 11
69.602205483587099
 21
-126.7973896889584
 31
0.0
 73
     2
  0
TEXT
  5
268
  8
DATA
 62
     7
 10
69.602205483587099
 20
-134.58344112124999
 30
0.0
 40
4.072102864583333
  1
C
 41
0.7
 11
69.602205483587099
 21
-132.54738968895839
 31
0.0
 73
     2
  0
TEXT
  5
269
  8
DATA
 62
     7
 10
69.602205483587099
 20
-140.3334411212501
 30
0.0
 40
4.072102864583333
  1
D
 41
0.7
 11
69.602205483587099
 21
-138.29738968895839
 31
0.0
 73
     2
  0
TEXT
  5
26A
  8
DATA
 62
     7
 10
69.602205483587099
 20
-146.0834411212501
 30
0.0
 40
4.072102864583333
  1
E
 41
0.7
 11
69.602205483587099
 21
-144.04738968895839
 31
0.0
 73
     2
  0
TEXT
  5
26B
  8
DATA
 62
     7
 10
69.602205483587099
 20
-151.83344112124999
 30
0.0
 40
4.072102864583333
  1
F
 41
0.7
 11
69.602205483587099
 21
-149.79738968895839
 31
0.0
 73
     2
  0
TEXT
  5
26C
  8
DATA
 62
     7
 10
89.440512143246139
 20
-59.70285969843458
 30
0.0
 40
3.9092187499999991
  1
LED
 41
0.7
 11
89.440512143246139
 21
-57.748250323434583
 31
0.0
 73
     2
  0
TEXT
  5
26D
  8
DATA
 62
     7
 10
89.313003589301715
 20
-65.583441121250061
 30
0.0
 40
4.072102864583333
  1
off
 41
0.7
 11
89.313003589301715
 21
-63.547389688958397
 31
0.0
 73
     2
  0
TEXT
  5
26E
  8
DATA
 62
     7
 10
90.588473617291712
 20
-111.2248814921182
 30
0.0
 40
4.072102864583333
  1
on
 41
0.7
 11
90.588473617291712
 21
-109.1888300598266
 31
0.0
 73
     2
  0
TEXT
  5
26F
  8
DATA
 62
     7
 10
89.313003589301715
 20
-71.333441121250061
 30
0.0
 40
4.072102864583333
  1
off
 41
0.7
 11
89.313003589301715
 21
-69.29738968895839
 31
0.0
 73
     2
  0
TEXT
  5
270
  8
DATA
 62
     7
 10
89.313003589301715
 20
-77.083441121250061
 30
0.0
 40
4.072102864583333
  1
off
 41
0.7
 11
89.313003589301715
 21
-75.04738968895839
 31
0.0
 73
     2
  0
TEXT
  5
271
  8
DATA
 62
     7
 10
89.313003589301715
 20
-82.833441121250104
 30
0.0
 40
4.072102864583333
  1
off
 41
0.7
 11
89.313003589301715
 21
-80.797389688958447
 31
0.0
 73
     2
  0
TEXT
  5
272
  8
DATA
 62
     7
 10
89.313003589301715
 20
-88.583441121250047
 30
0.0
 40
4.072102864583333
  1
off
 41
0.7
 11
89.313003589301715
 21
-86.547389688958376
 31
0.0
 73
     2
  0
TEXT
  5
273
  8
DATA
 62
     7
 10
89.313003589301715
 20
-94.333441121250075
 30
0.0
 40
4.072102864583333
  1
off
 41
0.7
 11
89.313003589301715
 21
-92.297389688958404
 31
0.0
 73
     2
  0
TEXT
  5
274
  8
DATA
 62
     7
 10
89.313003589301715
 20
-100.08344112125
 30
0.0
 40
4.072102864583333
  1
off
 41
0.7
 11
89.313003589301715
 21
-98.047389688958404
 31
0.0
 73
     2
  0
TEXT
  5
275
  8
DATA
 62
     7
 10
89.313003589301715
 20
-105.8334411212501
 30
0.0
 40
4.072102864583333
  1
off
 41
0.7
 11
89.313003589301715
 21
-103.7973896889584
 31
0.0
 73
     2
  0
TEXT
  5
276
  8
DATA
 62
     7
 10
90.588473617291712
 20
-116.9748814921182
 30
0.0
 40
4.072102864583333
  1
on
 41
0.7
 11
90.588473617291712
 21
-114.9388300598265
 31
0.0
 73
     2
  0
TEXT
  5
277
  8
DATA
 62
     7
 10
90.588473617291712
 20
-122.7248814921182
 30
0.0
 40
4.072102864583333
  1
on
 41
0.7
 11
90.588473617291712
 21
-120.6888300598266
 31
0.0
 73
     2
  0
TEXT
  5
278
  8
DATA
 62
     7
 10
90.588473617291712
 20
-128.4748814921181
 30
0.0
 40
4.072102864583333
  1
on
 41
0.7
 11
90.588473617291712
 21
-126.4388300598265
 31
0.0
 73
     2
  0
TEXT
  5
279
  8
DATA
 62
     7
 10
90.588473617291712
 20
-134.22488149211819
 30
0.0
 40
4.072102864583333
  1
on
 41
0.7
 11
90.588473617291712
 21
-132.1888300598265
 31
0.0
 73
     2
  0
TEXT
  5
27A
  8
DATA
 62
     7
 10
90.588473617291712
 20
-139.97488149211819
 30
0.0
 40
4.072102864583333
  1
on
 41
0.7
 11
90.588473617291712
 21
-137.93883005982661
 31
0.0
 73
     2
  0
TEXT
  5
27B
  8
DATA
 62
     7
 10
90.588473617291712
 20
-145.72488149211819
 30
0.0
 40
4.072102864583333
  1
on
 41
0.7
 11
90.588473617291712
 21
-143.6888300598265
 31
0.0
 73
     2
  0
TEXT
  5
27C
  8
DATA
 62
     7
 10
90.588473617291712
 20
-151.47488149211819
 30
0.0
 40
4.072102864583333
  1
on
 41
0.7
 11
90.588473617291712
 21
-149.43883005982661
 31
0.0
 73
     2
  0
TEXT
  5
27D
  8
DATA
 62
     7
 10
106.68210801474351
 20
-59.862080521324707
 30
0.0
 40
3.9092187499999991
  1
BASSCUT
 41
0.7
 11
106.68210801474351
 21
-57.90747114632471
 31
0.0
 73
     2
  0
TEXT
  5
27E
  8
DATA
 62
     7
 10
111.813003589301
 20
-65.583441121250061
 30
0.0
 40
4.072102864583333
  1
off
 41
0.7
 11
111.813003589301
 21
-63.547389688958397
 31
0.0
 73
     2
  0
TEXT
  5
27F
  8
DATA
 62
     7
 10
111.813003589301
 20
-71.333441121250061
 30
0.0
 40
4.072102864583333
  1
off
 41
0.7
 11
111.813003589301
 21
-69.29738968895839
 31
0.0
 73
     2
  0
TEXT
  5
280
  8
DATA
 62
     7
 10
111.813003589301
 20
-77.083441121250061
 30
0.0
 40
4.072102864583333
  1
off
 41
0.7
 11
111.813003589301
 21
-75.04738968895839
 31
0.0
 73
     2
  0
TEXT
  5
281
  8
DATA
 62
     7
 10
111.813003589301
 20
-82.833441121250104
 30
0.0
 40
4.072102864583333
  1
off
 41
0.7
 11
111.813003589301
 21
-80.797389688958447
 31
0.0
 73
     2
  0
TEXT
  5
282
  8
DATA
 62
     7
 10
111.813003589301
 20
-111.5834411212501
 30
0.0
 40
4.072102864583333
  1
off
 41
0.7
 11
111.813003589301
 21
-109.5473896889584
 31
0.0
 73
     2
  0
TEXT
  5
283
  8
DATA
 62
     7
 10
111.813003589301
 20
-117.33344112125
 30
0.0
 40
4.072102864583333
  1
off
 41
0.7
 11
111.813003589301
 21
-115.2973896889583
 31
0.0
 73
     2
  0
TEXT
  5
284
  8
DATA
 62
     7
 10
111.813003589301
 20
-123.08344112125
 30
0.0
 40
4.072102864583333
  1
off
 41
0.7
 11
111.813003589301
 21
-121.0473896889584
 31
0.0
 73
     2
  0
TEXT
  5
285
  8
DATA
 62
     7
 10
111.813003589301
 20
-128.83344112124999
 30
0.0
 40
4.072102864583333
  1
off
 41
0.7
 11
111.813003589301
 21
-126.7973896889583
 31
0.0
 73
     2
  0
TEXT
  5
286
  8
DATA
 62
     7
 10
113.2462286862678
 20
-87.961090125785475
 30
0.0
 40
4.072102864583333
  1
on
 41
0.7
 11
113.2462286862678
 21
-85.925038693493804
 31
0.0
 73
     2
  0
TEXT
  5
287
  8
DATA
 62
     7
 10
113.2462286862678
 20
-93.711090125785518
 30
0.0
 40
4.072102864583333
  1
on
 41
0.7
 11
113.2462286862678
 21
-91.675038693493846
 31
0.0
 73
     2
  0
TEXT
  5
288
  8
DATA
 62
     7
 10
113.2462286862678
 20
-99.461090125785475
 30
0.0
 40
4.072102864583333
  1
on
 41
0.7
 11
113.2462286862678
 21
-97.425038693493804
 31
0.0
 73
     2
  0
TEXT
  5
289
  8
DATA
 62
     7
 10
113.2462286862678
 20
-105.2110901257855
 30
0.0
 40
4.072102864583333
  1
on
 41
0.7
 11
113.2462286862678
 21
-103.1750386934938
 31
0.0
 73
     2
  0
TEXT
  5
28A
  8
DATA
 62
     7
 10
113.0884736172909
 20
-134.22488149211819
 30
0.0
 40
4.072102864583333
  1
on
 41
0.7
 11
113.0884736172909
 21
-132.1888300598265
 31
0.0
 73
     2
  0
TEXT
  5
28B
  8
DATA
 62
     7
 10
113.0884736172909
 20
-139.97488149211819
 30
0.0
 40
4.072102864583333
  1
on
 41
0.7
 11
113.0884736172909
 21
-137.93883005982661
 31
0.0
 73
     2
  0
TEXT
  5
28C
  8
DATA
 62
     7
 10
113.0884736172909
 20
-145.72488149211819
 30
0.0
 40
4.072102864583333
  1
on
 41
0.7
 11
113.0884736172909
 21
-143.6888300598265
 31
0.0
 73
     2
  0
TEXT
  5
28D
  8
DATA
 62
     7
 10
113.0884736172909
 20
-151.47488149211819
 30
0.0
 40
4.072102864583333
  1
on
 41
0.7
 11
113.0884736172909
 21
-149.43883005982661
 31
0.0
 73
     2
  0
TEXT
  5
28E
  8
DATA
 62
     7
 10
136.69638327699249
 20
-59.862080521324707
 30
0.0
 40
3.9092187499999991
  1
SWITCH
 41
0.7
 11
136.69638327699249
 21
-57.90747114632471
 31
0.0
 73
     2
  0
TEXT
  5
28F
  8
DATA
 62
     7
 10
136.69638327699249
 20
-65.532609734956466
 30
0.0
 40
3.9092187499999991
  1
on/off
 41
0.7
 11
136.69638327699249
 21
-63.578000359956462
 31
0.0
 73
     2
  0
TEXT
  5
290
  8
DATA
 62
     7
 10
128.79902934515201
 20
-71.044197375851994
 30
0.0
 40
3.9092187499999991
  1
push to talk
 41
0.7
 11
128.79902934515201
 21
-69.089588000852004
 31
0.0
 73
     2
  0
TEXT
  5
291
  8
DATA
 62
     7
 10
128.87850013152021
 20
-76.873668162220156
 30
0.0
 40
3.9092187499999991
  1
push to mute
 41
0.7
 11
128.87850013152021
 21
-74.919058787220152
 31
0.0
 73
     2
  0
TEXT
  5
292
  8
DATA
 62
     7
 10
143.40167541331081
 20
-82.623668162220113
 30
0.0
 40
3.9092187499999991
  1
-
 41
0.7
 11
143.40167541331081
 21
-80.669058787220123
 31
0.0
 73
     2
  0
TEXT
  5
293
  8
DATA
 62
     7
 10
136.69638327699249
 20
-88.373668162220156
 30
0.0
 40
3.9092187499999991
  1
on/off
 41
0.7
 11
136.69638327699249
 21
-86.419058787220152
 31
0.0
 73
     2
  0
TEXT
  5
294
  8
DATA
 62
     7
 10
128.79902934515201
 20
-94.044197375851994
 30
0.0
 40
3.9092187499999991
  1
push to talk
 41
0.7
 11
128.79902934515201
 21
-92.089588000851975
 31
0.0
 73
     2
  0
TEXT
  5
295
  8
DATA
 62
     7
 10
128.87850013152021
 20
-99.873668162220113
 30
0.0
 40
3.9092187499999991
  1
push to mute
 41
0.7
 11
128.87850013152021
 21
-97.919058787220123
 31
0.0
 73
     2
  0
TEXT
  5
296
  8
DATA
 62
     7
 10
143.40167541331081
 20
-105.6236681622201
 30
0.0
 40
3.9092187499999991
  1
-
 41
0.7
 11
143.40167541331081
 21
-103.6690587872201
 31
0.0
 73
     2
  0
TEXT
  5
297
  8
DATA
 62
     7
 10
136.69638327699249
 20
-111.3736681622201
 30
0.0
 40
3.9092187499999991
  1
on/off
 41
0.7
 11
136.69638327699249
 21
-109.4190587872201
 31
0.0
 73
     2
  0
TEXT
  5
298
  8
DATA
 62
     7
 10
128.79902934515201
 20
-117.04419737585199
 30
0.0
 40
3.9092187499999991
  1
push to talk
 41
0.7
 11
128.79902934515201
 21
-115.089588000852
 31
0.0
 73
     2
  0
TEXT
  5
299
  8
DATA
 62
     7
 10
128.87850013152021
 20
-122.8736681622202
 30
0.0
 40
3.9092187499999991
  1
push to mute
 41
0.7
 11
128.87850013152021
 21
-120.91905878722019
 31
0.0
 73
     2
  0
TEXT
  5
29A
  8
DATA
 62
     7
 10
143.40167541331081
 20
-128.6236681622201
 30
0.0
 40
3.9092187499999991
  1
-
 41
0.7
 11
143.40167541331081
 21
-126.6690587872201
 31
0.0
 73
     2
  0
TEXT
  5
29B
  8
DATA
 62
     7
 10
136.69638327699249
 20
-134.3736681622201
 30
0.0
 40
3.9092187499999991
  1
on/off
 41
0.7
 11
136.69638327699249
 21
-132.41905878722019
 31
0.0
 73
     2
  0
TEXT
  5
29C
  8
DATA
 62
     7
 10
128.79902934515201
 20
-140.04419737585201
 30
0.0
 40
3.9092187499999991
  1
push to talk
 41
0.7
 11
128.79902934515201
 21
-138.08958800085199
 31
0.0
 73
     2
  0
TEXT
  5
29D
  8
DATA
 62
     7
 10
128.87850013152021
 20
-145.8736681622201
 30
0.0
 40
3.9092187499999991
  1
push to mute
 41
0.7
 11
128.87850013152021
 21
-143.91905878722011
 31
0.0
 73
     2
  0
TEXT
  5
29E
  8
DATA
 62
     7
 10
143.40167541331081
 20
-151.62366816222021
 30
0.0
 40
3.9092187499999991
  1
-
 41
0.7
 11
143.40167541331081
 21
-149.66905878722019
 31
0.0
 73
     2
  0
LINE
  5
29F
  8
DATA
  6
CONTINUOUS
 62
     7
 10
59.655397412742019
 20
-170.0206738789326
 30
0.0
 11
162.15539741273869
 21
-170.0206738789326
 31
0.0
  0
TEXT
  5
2A0
  8
DATA
 62
     7
 10
103.2280635711687
 20
-162.90617183309811
 30
0.0
 40
4.3435763888888879
  1
Made in Philippines
 41
0.7
 11
103.2280635711687
 21
-160.7343836386537
 31
0.0
 73
     2
  0
TEXT
  5
2A1
  8
DATA
 62
     7
 10
79.531151157217948
 20
-183.08376495600069
 30
0.0
 40
5.4294704861111107
  1
設定スイッチ拡大図
 41
0.7
 11
79.531151157217948
 21
-180.36902971294509
 31
0.0
 73
     2
  0
LINE
  5
2A2
  8
DATA
  6
CONTINUOUS
 62
     7
 10
70.0
 20
-185.0
 30
0.0
 11
150.0
 21
-185.0
 31
0.0
  0
LINE
  5
2A3
  8
DATA
  6
CONTINUOUS
 62
     7
 10
-87.499999999999986
 20
-98.847204570464797
 30
0.0
 11
-87.499999999999986
 21
-100.74185978135429
 31
0.0
  0
LINE
  5
2A4
  8
DATA
  6
CONTINUOUS
 62
     7
 10
-72.499999999999986
 20
-98.847204570464797
 30
0.0
 11
-72.499999999999986
 21
-100.74185978135429
 31
0.0
  0
LINE
  5
2A5
  8
DATA
  6
CONTINUOUS
 62
     7
 10
-87.499999999999986
 20
-100.74185978135429
 30
0.0
 11
-72.499999999999986
 21
-100.74185978135429
 31
0.0
  0
ARC
  5
2A6
  8
DATA
  6
CONTINUOUS
 62
     7
 10
-79.999999999999986
 20
-83.291797830365127
 30
0.0
 40
17.269067110007349
 50
244.2590772111682
 51
295.74092278883182
  0
LINE
  5
2A7
  8
DATA
  6
CONTINUOUS
 62
     7
 10
-85.999999999999986
 20
-72.999999999966633
 30
0.0
 11
-73.999999999999986
 21
-72.121951219498371
 31
0.0
  0
LINE
  5
2A8
  8
DATA
  6
CONTINUOUS
 62
     7
 10
-85.999999999999986
 20
-71.799999999966644
 30
0.0
 11
-73.999999999999986
 21
-70.921951219498382
 31
0.0
  0
LINE
  5
2A9
  8
DATA
  6
CONTINUOUS
 62
     7
 10
-85.999999999999986
 20
-70.599999999966641
 30
0.0
 11
-73.999999999999986
 21
-69.721951219498365
 31
0.0
  0
LINE
  5
2AA
  8
DATA
  6
CONTINUOUS
 62
     7
 10
-85.999999999999986
 20
-69.399999999966653
 30
0.0
 11
-73.999999999999986
 21
-68.521951219498391
 31
0.0
  0
LINE
  5
2AB
  8
DATA
  6
CONTINUOUS
 62
     7
 10
-17.000000000000021
 20
62.972681283367137
 30
0.0
 11
-18.159247151970838
 21
74.972681283367123
 31
0.0
  0
LINE
  5
2AC
  8
DATA
  6
CONTINUOUS
 62
     7
 10
-18.20000000000001
 20
62.972681283367137
 30
0.0
 11
-19.35924715197083
 21
74.972681283367123
 31
0.0
  0
LINE
  5
2AD
  8
DATA
  6
CONTINUOUS
 62
     7
 10
-19.400000000000009
 20
62.972681283367137
 30
0.0
 11
-20.55924715197084
 21
74.972681283367123
 31
0.0
  0
LINE
  5
2AE
  8
DATA
  6
CONTINUOUS
 62
     7
 10
-20.600000000000019
 20
62.972681283367137
 30
0.0
 11
-21.75924715197084
 21
74.972681283367123
 31
0.0
  0
LINE
  5
2AF
  8
DATA
  6
CONTINUOUS
 62
     7
 10
-85.999999999999986
 20
154.0
 30
0.0
 11
-73.999999999999986
 21
153.25
 31
0.0
  0
LINE
  5
2B0
  8
DATA
  6
CONTINUOUS
 62
     7
 10
-85.999999999999986
 20
152.80000000000001
 30
0.0
 11
-73.999999999999986
 21
152.05000000000001
 31
0.0
  0
LINE
  5
2B1
  8
DATA
  6
CONTINUOUS
 62
     7
 10
-85.999999999999986
 20
151.59999999999999
 30
0.0
 11
-73.999999999999986
 21
150.84999999999999
 31
0.0
  0
LINE
  5
2B2
  8
DATA
  6
CONTINUOUS
 62
     7
 10
-85.999999999999986
 20
150.40000000000001
 30
0.0
 11
-73.999999999999986
 21
149.65000000000001
 31
0.0
  0
LINE
  5
2B3
  8
DATA
  6
CONTINUOUS
 62
     7
 10
-87.499999999999986
 20
-98.847204570464783
 30
0.0
 11
-87.499999999999986
 21
-96.156011420999874
 31
0.0
  0
LINE
  5
2B4
  8
DATA
  6
CONTINUOUS
 62
     7
 10
-72.499999999999986
 20
-98.847204570464783
 30
0.0
 11
-72.499999999999986
 21
-96.156011420999874
 31
0.0
  0
ARC
  5
2B5
  8
DATA
  6
CONTINUOUS
 62
     7
 10
-80.0
 20
-105.46473378079121
 30
0.0
 40
8.9647337807912617
 50
43.52588107618871
 51
136.4741189238112
  0
ARC
  5
2B6
  8
DATA
  6
CONTINUOUS
 62
     7
 10
-80.0
 20
-63.254095056021427
 30
0.0
 40
33.745904943978587
 50
257.1588268918369
 51
265.51730733112521
  0
ARC
  5
2B7
  8
DATA
  6
CONTINUOUS
 62
     7
 10
-80.0
 20
-63.254095056021427
 30
0.0
 40
33.745904943978573
 50
274.4826926688749
 51
282.84117310816322
  0
ARC
  5
2B8
  8
DATA
  6
CONTINUOUS
 62
     7
 10
-104.5
 20
184.0
 30
0.0
 40
1.0
 50
270.0
 51
0.0
  0
ARC
  5
2B9
  8
DATA
  6
CONTINUOUS
 62
     7
 10
-101.7798791229073
 20
184.0
 30
0.0
 40
1.000000000000028
 50
270.0
 51
359.0572535783931
  0
ARC
  5
2BA
  8
DATA
  6
CONTINUOUS
 62
     7
 10
-58.220120877092619
 20
184.0
 30
0.0
 40
1.00000000000001
 50
180.94274642160519
 51
269.9999999999996
  0
ARC
  5
2BB
  8
DATA
  6
CONTINUOUS
 62
     7
 10
-55.499999999999993
 20
184.0
 30
0.0
 40
1.0
 50
180.0
 51
270.0
  0
ENDSEC
  0
EOF
